Cifra Club

Aprenda

Juntos (part. Luan Santana)

Paula Fernandes

Tablatura: Principal (guitarra)
Tom: Cm (con acordes en la forma de Am) Capotraste na 3ª casa
[Intro] Am7  G/B  C
        F5(9)  C  G
        Am7  G/B  C

   Am7      G/B      C
E|------------------------------------------|
B|------------------------------------------|
G|-----0--------0---------------------------|
D|---2---2--------x--0h2--------------------|
A|-0--------2h5---x--3----------------------|
E|----------------x-------------------------|

   F5(9)          C       G
E|------------------------------------------|
B|--------------------------0---------------|
G|-------0---2p0----0-----0-0-2h4p2-0-------|
D|-----3---3--------2--x--0-0---------------|
A|---3------------3----x--------------------|
E|-1-------------------x--3-----------------|

   Am7      G/B      C
E|------------------------------------------|
B|------------------------------------------|
G|-----0--------0---------------------------|
D|---2---2--------x--0h2--------------------|
A|-0--------2h5---x--3----------------------|
E|----------------x-------------------------|

[Primeira Parte]

   Am7      G/B      C
E|------------------------------------------|
B|------------------------------------------|
G|-----0------0-----------------------------|
D|---2---2----0---x--0h2--------------------|
A|-0--------2-----x--3----------------------|
E|----------------x-------------------------|

   F5(9)          C       G
E|------------------------------------------|
B|-------1----------------------------------|
G|---------0--------0-----0---2h4p2-0-------|
D|-----3-----3------2--x--0-0---------------|
A|---3------------3----x--------------------|
E|-1-------------------x--3-----------------|

   Am7      G/B      C
E|------------------------------------------|
B|------------------------------------------|
G|-----0------0-----------------------------|
D|---2---2----0---x--0h2--------------------|
A|-0--------2-----x--3----------------------|
E|----------------x-------------------------|

   F5(9)          C       G
E|------------------------------------------|
B|-------1----------------------------------|
G|---------0--------0-----0---2h4p2-0-------|
D|-----3-----3------2--x--0-0---------------|
A|---3------------3----x--------------------|
E|-1-------------------x--3-----------------|

   Am7      G/B      C
E|------------------------------------------|
B|----------------------------1-------------|
G|-----0------0-------------------0---------|
D|---2---2----0---x--0h2----2---2-----------|
A|-0--------2-----x--3----3-----------------|
E|----------------x-------------------------|

   F5(9)          C       G
E|------------------------------------------|
B|-------1----------------------------------|
G|---------0--------------0---2h4p2-0-------|
D|-----3-----3----0h2--x--0-0---------------|
A|---3------------3----x--------------------|
E|-1-------------------x--3-----------------|

   Am7      G/B      C
E|------------------------------------------|
B|------------------------------------------|
G|-----0------0-----------------------------|
D|---2---2----0---x--0h2--------------------|
A|-0--------2-----x--3----------------------|
E|----------------x-------------------------|

   F5(9)          C       G
E|------------------------------------------|
B|-------1----------------------------------|
G|---------0--------------0---2h4p2-0-------|
D|-----3-----3----0h2--x--0-0---------------|
A|---3------------3----x--------------------|
E|-1-------------------x--3-----------------|

Am7       G/B  C
    Diga meu amor 
F5(9)                          C   G
      Se anda um pouco triste como eu 
Am7          G/B  C
    Diga o que ficou 
F5(9)                       C    G
      Da história que a gente viveu  

Am7  G/B  C
Eu  ca____i 
F5(9)                   C    G
      E tudo agora lembra você 
      Am7        G/B  C
Me vi,    sem a ge__nte 
F5(9)                            C      G
      E não dá mais porque sei que sou seu  

( Am7  G/B  C )
( Am7  G/B  C )

   Am7      G/B      C
E|------------------------------------------|
B|------------------------------------------|
G|-----0------0-----------------------------|
D|---2---2----0---x--0h2--------------------|
A|-0--------2-----x--3----------------------|
E|----------------x-------------------------|

   Am7      G/B      C    H.A.  .
E|------------------------------------------|
B|---------------------------13-------------|
G|-----0------0-----------------12----------|
D|---2---2----0---x--0h2--------------------|
A|-0--------2-----x--3----------------------|
E|----------------x-------------------------|

[Segunda Parte]

   Am7      G/B      C
E|------------------------------------------|
B|----------------------------1-------------|
G|-----0------0-------------------0---------|
D|---2---2----0---x--0h2----2---2---2-------|
A|-0--------2-----x--3----3-----------------|
E|----------------x-------------------------|

   F5(9)          C       G
E|------------------------------------------|
B|---------1--------------------------------|
G|-----------0--------------0---2h4p2-0-----|
D|-------3-----3----0h2--x--0-0-------------|
A|-----3------------3----x------------------|
E|-0h1-------------------x--3---------------|

   Am7      G/B      C
E|------------------------------------------|
B|----------------------------1-------------|
G|-----0------0-------------------0---------|
D|---2---2----0---x--0h2----2---2---2-------|
A|-0--------2-----x--3----3-----------------|
E|----------------x-------------------------|

   F5(9)          C       G
E|------------------------------------------|
B|-------1----------------------------------|
G|---------0--------------0---2h4p2-0-------|
D|-----3-----3----0h2--x--0-0---------------|
A|---3------------3----x--------------------|
E|-1-------------------x--3-----------------|

   Am7      G/B      C
E|------------------------------------------|
B|----------------------------1-------------|
G|-----0------0-------------------0---------|
D|---2---2----0---x--0h2----2---2---2-------|
A|-0--------2-----x--3----3-----------------|
E|----------------x-------------------------|

   F5(9)          C       G
E|------------------------------------------|
B|-------1----------------------------------|
G|---------0--------------0---2h4p2-0-------|
D|-----3-----3----0h2--x--0-0---------------|
A|---3------------3----x--------------------|
E|-1-------------------x--3-----------------|

   Am7      G/B      C
E|------------------------------------------|
B|----------------------------1-------------|
G|-----0------0-------------------0---------|
D|---2---2----0---x--0h2----2---2---2-------|
A|-0--------2-----x--3----3-----------------|
E|----------------x-------------------------|

   F5(9)          C       G
E|------------------------------------------|
B|-------1----------------------------------|
G|---------0--------------0---2h4p2-0-------|
D|-----3-----3----0h2--x--0-0---------------|
A|---3------------3----x--------------------|
E|-1-------------------x--3-----------------|
 
Am7            G/B   C
    Diga por que se foi 
F5(9)                      C     G
      Quantas vezes se sentiu sozinho longe? 
Am7             G/C   C
    Me diga o que pensou? 
F5(9)                          C    G          
      Pra vir buscar agora o que vivemos antes? 

Am7  G/B  C
Eu  ca____i 
F5(9)                         C      G
      E vi nascer uma força que nem sei de onde  
Am7      G/B  C
    Pra se__guir  
F5(9)                     C      G
      E suportar a falta desse amor  

[Refrão]
 
 Dm         Dm/C
Diga o que te fez 
 G/B  
Sentir saudade 
 C          G/B  Am7
Bote um ponto final 
 Dm       Dm/C
Cole de uma vez 
 G/B  
Nossas metades 
 C         G/B    Am7
Juntos e shallow now 

  Dm         Dm/C
Diga o que te fez 
 G/B  
Sentir saudade 
 C          G/B  Am7
Bote um ponto final 
 Dm       Dm/C
Cole de uma vez 
 G/B  
Nossas metades 
 C         G/B    Am7
Juntos e shallow now 

( Em  G9  D9  Am7 )
( Em  G9  D9 )

[Refrão]
 
 Dm         
Diga o que te fez 
 G/B  
Sentir saudade 
 C          G/B  Am7
Bote um ponto final 
 Dm       
Cole de uma vez 
 G/B  
Nossas metades 
 C         G/B    Am7
Juntos e shallow now 

Dm          Dm/C     G/B
   In the shallow, shallow
C          G/B        Am7
  In the sha, sha-la-la-la-llow
Dm          Dm/C     G/B
   In the shallow, shallow
 C         G/B    Am7
Juntos e shallow now
Compositor Lady Gaga / Andrew Wyatt / Anthony Rossomondo / Mark Ronson / Paula Fernandes
Colaboración y revision:
  • Thiago Almeida
233 reproducciones
    • ½ Tom
    • Am
    • Bbm
    • Bm
    • Cm
    • C#m
    • Dm
    • Ebm
    • Em
    • Fm
    • F#m
    • Gm
    • G#m
  • Adicionar à lista

    0 comentarios

    Mostrar mais comentários

    ¿Conseguiste tocar?

    21 Tocaron 12 Ainda não

    Grave um vídeo tocando Juntos (part. Luan Santana) e mande pra gente!

    00:00 / 00:00
    outros vídeos desta música
    repetir qualidade Automático
    Outros vídeos desta música
    00:00 / 00:00
    Automático
    OK