Cifra Club

Aprenda

Não Precisa (part. Victor e Léo)

Paula Fernandes

Tablatura: Principal (guitarra)
tono: A (con acordes en la forma de G) Capotraste na 2ª casa
[Intro]

                    C       G
E|-----------------------------------------|
B|-5-3p2------------------3-2-----2--------|
G|-------4-2---2--------2-------2----------|
D|-----------6---2----4-------2-------2----|
A|------------------5----------------------|
E|--------------------------5-------5------|

         C       G               C       G
E|-----------------------------------------|
B|-------------3-------2-------2-------3-2-|
G|-----------2-------2-------2-------2---2-|
D|-----2---4-------2-------2-------4-----2-|
A|-2/4---5-----------------------5---------|
E|---------------5-------5---------------5-|

[Primeira Parte]

Dedilhado da Primeira Parte

   D/F#            C
E|-----------------------------------------|
B|-------5---------------3-------3---------|
G|-----4---------------2-------2-----------|
D|---2-------2-------4-------4-------------|
A|-------------2-4-5-------5---------------|
E|-4-------4-------------------------------|

   Em
E|-----------------------------------------|
B|-------2-------2-------2-------2---------|
G|-----2-------2-------2-------2-----------|
D|---4-------4-------4-------4-------------|
A|-----------------------------------------|
E|-2-------2-------2-------2---------------|

   C               G
E|-----------------------------------------|
B|-------3-------3-------2--------2--------|
G|-----2-------2-------2--------2----------|
D|---4-------4-------2--------2------------|
A|-5-------5-------------------------------|
E|-----------------5--------5--------------|

   D5(9)             D
E|-------2-------2-2h4---------------------|
B|-----5-------5---------------------------|
G|---4-------4-----------------------------|
D|-2-------2-------2-----------------------|
A|-----------------------------------------|
E|-----------------------------------------|

                     D/F#
Você diz que não precisa
C                 Em
  Viver sonhando tanto
              C     G     D5(9)
Que vivo a fazer demais, por você

                D
Diz que não precisa
C9                Em7
  A cada vez que canto
        C9    G        D
Uma canção a mais pra você

[Refrão]

                   C9
Mas tem que ser assim
                G
Pra ser de coração
                 D         Em7
Não diga não precisa ah ah ahh

               C9
Tem que ser assim
               G
É seu meu coração
                 D         G
Não diga não precisa ah ah ahh

[Segunda Parte]

                    D
Eu já sonhei com a vida
C9               Em7
  Agora vivo um sonho
                 C9   G         D
Mas viver ou sonhar, com voce, tanto faz

                 D
Não diga não precisa
C9                  Em7
  Eu digo que é preciso
             C9    G     D
A gente se amar demais, nada mais

[Refrão]

                   C9
Mas tem que ser assim
                G
Pra ser de coração
                 D         Em7
Não diga não precisa ah ah ahh

               C9
Tem que ser assim    
               G
É seu meu coração
                 D         G
Não diga não precisa ah ah ahh

[Solo] C9  G  D  Em7
       C9  G  D  G

Parte 1 de 4

E|---------------------------------------------------|
B|-----------------------------5---------------------|
G|-------2---2h4-2-----2---4/6-----------------------|
D|-2-2h4---4-------2h4---4---------------------------|
A|---------------------------------------------------|
E|---------------------------------------------------|

Parte 2 de 4

E|---------2-4---4-2-4-4--5-5------------------------|
B|-------2---5-5-5-5-5-5--4-7-7~---------------------|
G|-6\4p2---------------------------------------------|
D|---------------------------------------------------|
A|---------------------------------------------------|
E|---------------------------------------------------|

Parte 3 de 4

E|----17-17-16-14-12-12-------12---------------------|
B|----------------------12----12---------------------|
G|-18-------16-14-14-14----13-13---------------------|
D|---------------------------------------------------|
A|---------------------------------------------------|
E|---------------------------------------------------|

Parte 4 de 4

E|---------------------------------------------------|
B|---7\5--14\12--9/10--------------------------------|
G|---------------------------------------------------|
D|-9-------------------------------------------------|
A|---------------------------------------------------|
E|---------------------------------------------------|

[Segunda Parte]

                    D
Eu já sonhei com a vida
C9               Em7
  Agora vivo um sonho
                 C9   G         D
Mas viver ou sonhar, com voce, tanto faz

                 D
Não diga não precisa
C9                  Em7
  Eu digo que é preciso
             C9    G     D
A gente se amar demais, nada mais

[Refrão 2x]

                   C9
Mas tem que ser assim
                G
Pra ser de coração
                 D         Em7
Não diga não precisa ah ah ahh

               C9
Tem que ser assim
               G
É seu meu coração
                 D         G
Não diga não precisa ah ah ahh
Composição de Victor Chaves
5.258 reproducciones
  • Simplificar cifra
    • ½ Tono
    • A
    • Bb
    • B
    • C
    • Db
    • D
    • Eb
    • E
    • F
    • F#
    • G
    • Ab
  • Adicionar à lista

    0 comentarios

    Ver todos os comentários

    ¿Conseguiste tocar?

    306 Tocaram 6 Ainda não

    Grave um vídeo tocando Não Precisa (part. Victor e Léo) e nos envie!

    00:00 / 00:00
    outros vídeos desta música
    repetir qualidade Automático
    Outros vídeos desta música
    00:00 / 00:00
    Automático
    Capítulos
    • Início
    • Dicas iniciais
    • Tocando a música
    • Acordes da Introdução
    • Tocando Introdução
    • Ensinando dedilhado da Intro (Parte 1)
    • Ensinando dedilhado da Intro (Parte 2)
    • Tocando Introdução (tablatura)
    • Acordes da Primeira Parte
    • Tocando Primeira Parte
    • Ensinando dedilhado Primeira Parte (Parte 1)
    • Ensinando dedilhado Primeira Parte (Parte 2 e 3)
    • Ensinando dedilhado Primeira Parte (Parte 4)
    • Tocando Primeira Parte (tablatura)
    • Acordes do ritmo
    • Tocando Primeira Parte (com ritmo)
    • Ensinando ritmo padrão
    • Tocando o Refrão
    • Acordes da Base do solo
    • Tocando Solo
    • Ensinando Solo
    • Ensinando Solo (Parte 1)
    • Ensinando Solo (Parte 2)
    • Ensinando Solo (Parte 3)
    • Ensinando Solo (Parte 4)
    • Encerramento
    OK