Cifra Club

Aprenda

Sensações

Paula Fernandes

Tablatura: Principal (guitarra)
tono: C (con acordes en la forma de G) Capotraste na 5ª casa
[Intro - 2x] G5(9)  G5(9)/F#  C6(9)  C9

Parte 1 de 6

   G5(9)
E|-----------5------------------------------|
B|------3---------3-------------------------|
G|----0----0----0----0----------------------|
D|-5----------------------------------------|
A|------------------------------------------|
E|------------------------------------------|

Parte 2 de 6

   G5(9)/F#
E|-----------5------------------------------|
B|------3---------3-------------------------|
G|----0----0----0----0----------------------|
D|-4----------------------------------------|
A|------------------------------------------|
E|------------------------------------------|

Parte 3 de 6

   C6(9)                C9
E|-----------5----------3--------3--2h3p2-0-|
B|------3---------3-----3----3---3----------|
G|----0----0----0----0-----0---0------------|
D|------------------------------------------|
A|-3--------------------3-------------------|
E|------------------------------------------|

Parte 4 de 6

   G5(9)
E|-----------5------------------------------|
B|-3----3---------3-------------------------|
G|----0----0----0----0----------------------|
D|-5----------------------------------------|
A|------------------------------------------|
E|-----------------------------------------|

Parte 5 de 6

   G5(9)/F#
E|-----------5------------------------------|
B|------3---------3-------------------------|
G|----0----0----0----0----------------------|
D|-4----------------------------------------|
A|------------------------------------------|
E|------------------------------------------|

Parte 6 de 6

   C6(9)                C9
E|-----------5----------3--------3--2p3p2-0-|
B|------3---------3-----3----3---3----------|
G|----0----0----0----0-----0---0------------|
D|------------------------------------------|
A|-3--------------------3-------------------|
E|------------------------------------------|

[Primeira Parte]

Parte 1 de 4

   G5(9)
E|------------------------------------------|
B|-----------3------------------------------|
G|-0----0---------0-------------------------|
D|----0----0----0----0----------------------|
A|------------------------------------------|
E|-3----------------------------------------|

Parte 2 de 4

   D9/F#
E|------------------------------------------|
B|-----------3------------------------------|
G|-2----2---------2-------------------------|
D|----0----0----0----0----------------------|
A|------------------------------------------|
E|-2----------------------------------------|

Parte 3 de 4

   Em7
E|------------------------------------------|
B|-----------3------------------------------|
G|-0----0---------0-------------------------|
D|----2----2----2----2----------------------|
A|------------------------------------------|
E|-0----------------------------------------|

Parte 4 de 4

   C9
E|------------------------------------------|
B|-----------3------------------------------|
G|-0----0---------0-------------------------|
D|----2----2----2----2----------------------|
A|-3----------------------------------------|
E|------------------------------------------|

G5(9)              D9/F#
      Eu me perdi,       perdi você
Em7                  C9
    Perdi a voz , o seu querer
G5(9)           D9/F#
      Agora sou       somente um
Em7                  C9
    Longe de nós um ser comum

[Segunda Parte]

Am7                     G/B
    Agora sou um vento só, a escuridão
          C9
Eu virei pó, fotografia
         D4          D   D4
Sou lembrança do passado
Am7                    G/B
    Agora sou a prova viva
                   C9
De que nada nessa vida
                       D4         D    D4
É pra sempre até que prove o contrário

[Refrão]

G5              D9(11)/F#
   Estar assim,           sentir assim
Em7                         C9
    Turbilhão de sensações dentro de mim
G5                       D9(11)/F#
   Eu amanheço, eu estremeço, eu enlouqueço
         Em7
Eu te cavalgo embaixo do cair
     C9
Da chuva eu reconheço
G5              D9(11)/F#
   Estar assim,           sentir assim
Em7                         C9
    Turbilhão de sensações dentro de mim
G5                       D9(11)/F#
   Eu me aqueço, eu endureço
                      Em7
Eu me derreto, eu evaporo
                      C9
Eu caio em forma de chuva eu reconheço
Eu me transformo

[Terceira Parte] 

( Am7  G/B  C9  D4  D )  (2X)
( Am7  G/B )

Parte 1 de 6

   Am7
E|------------------------------------------|
B|----1--------0---------1--------0---------|
G|----0--------0---------0--------0---------|
D|-------2--------2---------2--------2------|
A|-0--------0--------0---------0------------|
E|------------------------------------------|

Parte 2 de 6

   G6/B
E|------------------------------------------|
B|----3--------1---------3--------1---------|
G|----0--------0---------0--------0---------|
D|-------2--------2---------2--------2------|
A|-2--------2--------2---------2------------|
E|------------------------------------------|

Parte 3 de 6

   C9
E|----0------------------0------------------|
B|----3--------1---------3--------1---------|
G|-------0-----0------------0-----0---------|
D|----------2-----2------------2-----2------|
A|-3-----------------3----------------------|
E|------------------------------------------|

Parte 4 de 6

   D4                D
E|----3--------3---------2--------2---------|
B|----3--------3---------3--------3---------|
G|-------2--------2---------2--------2------|
D|-0--------0--------0---------0------------|
A|------------------------------------------|
E|------------------------------------------|

Parte 5 de 6

   C9
E|----0--------0----------------------------|
B|----3--------3----------------------------|
G|-------0--------0-------------------------|
D|----------2-------------------------------|
A|-3----------------------------------------|
E|------------------------------------------|

Parte 6 de 6

E|------------------------------------------|
B|-5-----7-----8-----7----------------------|
G|-0-----0-----0-----0----------------------|
D|------------------------------------------|
A|-3-----5-----7-----5----------------------|
E|------------------------------------------|

[Intro - 2x] G5(9)  G5(9)/F#  C6(9)  C9

Parte 1 de 6

   G5(9)
E|-----------5------------------------------|
B|------3---------3-------------------------|
G|----0----0----0----0----------------------|
D|-5----------------------------------------|
A|------------------------------------------|
E|------------------------------------------|

Parte 2 de 6

   G5(9)/F#
E|-----------5------------------------------|
B|------3---------3-------------------------|
G|----0----0----0----0----------------------|
D|-4----------------------------------------|
A|------------------------------------------|
E|------------------------------------------|

Parte 3 de 6

   C6(9)                C9
E|-----------5----------3--------3--2h3p2-0-|
B|------3---------3-----3----3---3----------|
G|----0----0----0----0-----0---0------------|
D|------------------------------------------|
A|-3--------------------3-------------------|
E|------------------------------------------|

Parte 4 de 6

   G5(9)
E|-----------5------------------------------|
B|-3----3---------3-------------------------|
G|----0----0----0----0----------------------|
D|-5----------------------------------------|
A|------------------------------------------|
E|-----------------------------------------|

Parte 5 de 6

   G5(9)/F#
E|-----------5------------------------------|
B|------3---------3-------------------------|
G|----0----0----0----0----------------------|
D|-4----------------------------------------|
A|------------------------------------------|
E|------------------------------------------|

Parte 6 de 6

   C6(9)                C9
E|-----------5----------3--------3--2p3p2-0-|
B|------3---------3-----3----3---3----------|
G|----0----0----0----0-----0---0------------|
D|------------------------------------------|
A|-3--------------------3-------------------|
E|------------------------------------------|

[Segunda Parte]

Am7                     G/B
    Agora sou um vento só, a escuridão
          C9
Eu virei pó, fotografia
         D4          D   D4
Sou lembrança do passado
Am7                    G/B
    Agora sou a prova viva
                   C9
De que nada nessa vida
                       D4         D    D4
É pra sempre até que prove o contrário

[Refrão]

A5(9)          A   E/G#           
      Estar assim,      sentir assim
F#m7                             D5(9)
     Turbilhão de sensações dentro de mim
A5(9)        A             E/G#
     Eu amanheço, eu estremeço, eu enlouqueço
         F#m7
Eu te cavalgo embaixo do cair
     D5(9)
Da chuva eu reconheço
A5(9)          A   E/G#               F#m7  D5(9)
      Estar assim,      sentir assim
A5(9)         A            E/G#
     Eu me aqueço, eu endureço
                      F#m7
Eu me derreto, eu evaporo
                      D5(9)
Eu caio em forma de chuva eu reconheço
Composição de Paula Fernandes
1.036 reproducciones
  • Simplificar cifra
    • ½ Tono
    • A
    • Bb
    • B
    • C
    • Db
    • D
    • Eb
    • E
    • F
    • F#
    • G
    • Ab
  • Adicionar à lista

    0 comentarios

    Ver todos os comentários

    ¿Conseguiste tocar?

    61 Tocaram 1 Ainda não

    Grave um vídeo tocando Sensações e nos envie!

    00:00 / 00:00
    outros vídeos desta música
    repetir qualidade Automático
    Outros vídeos desta música
    00:00 / 00:00
    Automático
    Capítulos
    • Início
    • Tocando a música
    • Acordes da Introdução
    • Tocando a Introdução
    • Ensinando a Introdução
    • Acordes da Primeira e Segunda partes
    • Tocando a Primeira e Segunda partes
    • Dedilhado da Primeira Parte
    • Ensinando Segunda Parte
    • Acordes do Refrão
    • Tocando o Refrão
    • Ensinando o Refrão
    • Acordes das Repetições e Parte Final
    • Tocando as Repetições e Parte Final
    • Encerramento
    OK