Cifra Club

Aprenda

Tocando Em Frente

Paula Fernandes

Tablatura: Versão 3 (guitarra)
tono: F# (con acordes en la forma de D) Capotraste na 4ª casa
Intro: G  Em7  D9  D  D9

     G            Em7
E|---------7----|--------7-----|
B|-------7------|------7-------|
G|-----4-------4|----4--------4|  2x
D|--------------|--------------|
A|--------------|--------------|
E|--7--------7--|-4--------4---|
  
 D9             D   D9
E|--------4-----4h6----4-------|
B|------7---7------------7-----|
G|----6------6------6------6---|
D|--4--------------------------|
A|-----------------------------|
E|-----------------------------|

Repete toda a intro

1° Parte:

    A
E|---------4-----------4-------|
B|-------6-----------6---------|
G|-----6-------6---6-------6---|
D|---------------6-------------|
A|--4--------4-----------4-----|
E|-----------------------------|
  
    G
E|---------7-----------7-------|
B|-------7-----------7---------|
G|-----4-------4---4--------4--|
D|---------------4-------------|
A|-----------------------------|
E|--7-------7------------7-----|

  D9            D   D9
E|--------4-----4h6----4-------|
B|------7---7------------7-----|
G|----6------6------6------6---|
D|--4--------------------------|
A|-----------------------------|
E|-----------------------------|

A                              G
 Ando devagar porque já tive pressa
                                    D9 D   D9
 E levo esse sorriso, porque já chorei demais
A                                           G
 Hoje me sinto mais forte, mais feliz quem sabe
                                    D9 D D9           A
 Eu só levo a certeza de que muito pouco eu sei, eu nada sei

2° Parte:

 D9             D   D9
E|--------4-----4h6----4-------|
B|------7---7------------7-----|
G|----6------6------6------6---|
D|--4--------------------------|
A|-----------------------------|
E|-----------------------------|

E|-4h6---4---------------------|
B|---------7-------------------|
G|-----6-----6-----------------|
D|-----------------------------|
A|-----------------------------|
E|-----------------------------|
  
G             Em7             G
 Conhecer as manhas e as manhãs,
              Em7            D9 D D9
 O sabor das massas e das maçãs,
G             Em7               G
 É preciso o amor pra poder pulsar,
            Em7              G
 é preciso paz pra poder sorrir,
              D9 D D9
 é preciso a chuva para florir.

  A                                G
 Penso que cumprir a vida seja simplesmente
                                        D9 D D9
 Compreender a marcha, e ir tocando em frente
  A                                  G
 Como um velho boiadeiro levando a boiada,
                                      D9 D D9
 eu vou tocando os dias pela longa estrada eu vou,
       A
 estrada eu sou

G             Em7             G
 Conhecer as manhas e as manhãs,
              Em7             D9 D D9
 O sabor das massas e das maçãs,
G              Em7               G
 É preciso o amor pra poder pulsar,
            Em7               G
 é preciso paz pra poder sorrir,
               D9 D D9
 é preciso a chuva para florir.

  A                                 G
 Todo mundo ama um dia todo mundo chora,
                                      D9 D D9
 Um dia a gente chega, no outro vai embora
 A                                G
 Cada um de nós compõe a sua história,
                                  D9 D D9
 Cada ser em si, carrega o dom de ser capaz,
     A
 De ser feliz

(Intro 2x)

A                              G
 Ando devagar porque já tive pressa
                                   D9 D D9
 E levo esse sorriso, porque já chorei demais
A                                G
 Cada um de nós compõe a sua história,
                                   D9 D D9
 Cada ser em si, carrega o dom de ser capaz,
     A
 De ser feliz
 
  Em7       F#m     G         D
Eeeeiee.. Eeeeiee.. Eeeeieeeeeiii...
Composição de Almir Sater / Renato Teixeira
Colaboración y revision:
  • Juma Fernanda
138 reproducciones
    • ½ Tono
    • A
    • Bb
    • B
    • C
    • Db
    • D
    • Eb
    • E
    • F
    • F#
    • G
    • Ab
  • Adicionar à lista

    0 comentarios

    Ver todos os comentários

    ¿Conseguiste tocar?

    2 Tocaram 0 Ainda não

    Grave um vídeo tocando Tocando Em Frente e nos envie!

    00:00 / 00:00
    outros vídeos desta música
    repetir qualidade Automático
    Outros vídeos desta música
    00:00 / 00:00
    Automático
    OK