Cifra Club

Aprenda

Eu Já Te Amava

Paula Mattos

Tablatura: Principal (guitarra)
Tom: G
G                    D
Era quarta-feira dia 30 de maio
Am                                   C
Exatamente às 19: 15 que eu te conheci, era uma noite especial
G
O seu olhar foi me tirando as palavras
D                               Am
A minha impaciência foi me entregando, ai você sorriu
C                          Am              D
Quando me abraçou não consegui conter as lágrimas
C                              Am         D
Lembrei da nossa história como se fosse agora
                 C
Antes de ver seu rosto 
                                 D
Eu já sabia, eu já sonhava com você
                            Bm
Quase toda noite eu te esperava 
                              Em
No fundo, no fundo eu já te amava
                      C
E hoje eu tenho tudo, o tudo é você
            
Só quero agradecer
                       G
Não posso reclamar de nada

E|----------------------------|
B|--3-5-3---------------------|
G|---------4-5-4--------------|
D|----------------5-7-5-7-5---|
A|----------------------------|
E|----------------------------|

E|----------------------------|
B|--3-5-3---------------------|
G|---------4-5-4--------------|
D|----------------5-7-5-7-5---|
A|----------------------------|
E|----------------------------|

                 C
Antes de ver seu rosto 
                                 D
Eu já sabia, eu já sonhava com você
                            Bm
Quase toda noite eu te esperava 
                              Em
No fundo, no fundo eu já te amava
                      C
E hoje eu tenho tudo, o tudo é você
            
Só quero agradecer
                       G
Não posso reclamar de nada
                       C
Não posso reclamar de nada

E|----------------------------|
B|--3-5-3---------------------|
G|---------4-5-4--------------|
D|----------------5-7-5-7-5---|
A|----------------------------|
E|----------------------------|

E|----------------------------|
B|--3-5-3---------------------|
G|---------4-5-4--------------|
D|----------------5-7-5-7-5---|
A|----------------------------|
E|----------------------------|

E|----------------------------|
B|--3-5-3---------------------|
G|---------4-5-4--------------|
D|----------------5-7-5-7-5---|
A|----------------------------|
E|----------------------------|

G  D  Am     C
    Ie ieeee

G
O seu olhar foi me tirando as palavras
D                               Am
A minha impaciência foi me entregando, ai você sorriu
C                          Am              D
Quando me abraçou não consegui conter as lágrimas
C                              Am         D
Lembrei da nossa história como se fosse agora
                 C
Antes de ver seu rosto 
                                 D
Eu já sabia, eu já sonhava com você
                            Bm
Quase toda noite eu te esperava 
                              Em
No fundo, no fundo eu já te amava
                      C
E hoje eu tenho tudo, o tudo é você
            
Só quero agradecer
                       G
Não posso reclamar de nada

E|----------------------------|
B|--3-5-3---------------------|
G|---------4-5-4--------------|
D|----------------5-7-5-7-5---|
A|----------------------------|
E|----------------------------|

E|----------------------------|
B|--3-5-3---------------------|
G|---------4-5-4--------------|
D|----------------5-7-5-7-5---|
A|----------------------------|
E|----------------------------|
                       C
Não posso reclamar de nada
                       G
Não posso reclamar de nada

E|------------------3--|
B|--3-5-3-----------3--|
G|---------4-5-4----0--|
D|------------------0--|
A|------------------2--|
E|------------------3--|
Compositor PAULA MATTOS
Colaboración y revision:
164 reproducciones
    • ½ Tom
    • A
    • Bb
    • B
    • C
    • Db
    • D
    • Eb
    • E
    • F
    • F#
    • G
    • Ab
  • Adicionar à lista

    0 comentarios

    Mostrar mais comentários

    ¿Conseguiste tocar?

    4 Tocaron 0 Ainda não

    Grave um vídeo tocando Eu Já Te Amava e mande pra gente!

    00:00 / 00:00
    outros vídeos desta música
    repetir qualidade Automático
    Outros vídeos desta música
    00:00 / 00:00
    Automático
    OK