Cifra Club

Quantas Vidas

Paulinho Moska

Tablatura: Principal (guitarra)
Tom: E
(intro)
     E             C#m7  G#m7            A        E   B7  B7/4    B7
E|-0---------------------------------------------------/4-2-------|
B|-0---4h5-4-2-0--------------4h5-4----5p4-5-----------/4-2-4h2-0-|
G|-1-------------1--------4h6-4h6-4----6p4-6----1/4---------4hx-1-|
D|-2---4h6-4-2----------4---------------------------4-------------|
A|-2--------------------------------------------------------------|
E|-0--------------------------------------------------------------|

     E        C#m7 G#m7          A         E       B7  B7/4 B7
E|------------4-----------------------5--4----------------2-------|
B|-5-4h5-4-2-----4----/5-5--5p4-5p4-5----5--5---------5---4-------|
G|--------------------/6-6--6p4-6p4-6----4---4--------------------|
D|-6-4h6-4-2-----------------------------------6-4----------------|
A|----------------------------------------------------------------|
E|----------------------------------------------------------------|

      E
Meu amor,
        C#m7                 G#m7
Vamos falar sobre o passado depois,
            A             E
Porque o futuro está esperando,
           B7           B|-4-3-2|
Por nós dois.          G|-4-3-2|

       E
Por favor,
          C#m7               G#m7
Deixe meu último pedido pra trás,
       A             E
E não volte pra ele nunca,
       B7
Nunca mais.

           C#m7         A
Porque ao longo destes meses,
             E         G#
Em que eu estive sem você,
          C#m7  G#m7   A      B7   E   E7
Eu fiz de tudo pra tentar te esquecer.
        C#m7          A
Eu já matei você mil vezes,
        E           G#
E teu amor ainda me vem,
         C#m7
Então me diga
 G#m7    A   B7      E  C#m7  G#m7  A  E  B7  B7/4 B7
Quantas vidas você tem.
reproducciones 701
Acordes para:
    Composição: Paulinho Moska Colaboración y revision:
    • Guilherme Lago
    • fellipe douglas
    • Antonio Couto

    0 comentarios

    mostrar más comentarios

    ¿Conseguiste tocar?

    10 tocaron 4 aún no

    ¡Graba un vídeo tocando Quantas Vidas y envianoslo!

    00:00 / 00:00
    outros vídeos desta música
    repetir qualidade Automático
    Outros vídeos desta música
    00:00 / 00:00
    Automático
    OK