Cifra Club

O Meu Querer

Paulo César Baruk

Tablatura: Principal
reproducciones 290
Tono: C
[Intro]  C9  G6/B  Am7/4  F6  C9  G6/B  Am7/4


 C9                G6/B        Am7/4  F6
Cada vez que eu abrir a minha boca
 C9                G6/B             Am7/4
Cada vez que eu olhar na direção de alguém
 F6                    E7           Am    Am/G     F#m7(b5)
Cada vez que, passo a passo, eu chegar em algum lugar
 C/G             F/G               C             F9
Seja a tua voz, sejam teus olhos, sejam os teus pés

 C9                G6/B         Am7/4   F6
Cada vez que eu tocar num rosto em pranto
 C9                G6/B                Am7/4
Cada vez que eu fizer o que já não se faz
 F6                    E7          Am    Am/G  F#m7(b5)
Cada vez que, em silêncio, eu doar a outra  face
 C/G              F/G             C       F9
Sejam tuas mãos, seja tua graça e o teu amor

C9              G/B      Am       F
Eu quero te servir, eu quero te obedecer
 C9           G          C/E          F
Viver tua vontade, refletir tua verdade
 C9                  G/B  Am       F
Te honrar com minha vida, em tudo te adorar
 C9       G        C/E  F
Mestre, amigo, amado Jesus
          C9
Esse é o meu querer

C9  G6/B  A4(7)  A4  Am5+

 C9              G6/B           Am7/4  F6
Cada vez que eu tocar num ombro amigo
 C9              G6/B               Am7/4
Cada vez que eu fizer o que já não se faz
 F6                    E7          Am    Am/G   F#m7(b5)
Cada vez que, em silêncio, eu doar a outra face
 C/G              F/G              C       F9
Serei tuas mãos, venha tua graça e o teu amor


E|------------------0----------------0------------------0--------------------|
B|------------3-----------------3------------------3----------------3--------|
G|--------0------0-----------0-----0------------0-----0----------5--------5--|
D|------------------------------------------------------------3-------3------|
A|---3-------------------2------------------0--------------------------------|
E|---------------------------------------------------------------------------|

E|----------------0-------------------0-----------------0-----|
B|----------3-------------------3------------------3----------|
G|-------0-----0-------------0-----0------------0-----0-------|
D|------------------------------------------------------------|
A|---3-------------------2------------------0-----------------|
E|------------------------------------------------------------|

"Cada vez que eu abrir minha boca"

E|------------------0----------------0------------------0--------------------|
B|------------3-----------------3------------------3----------------3--------|
G|--------0------0-----------0-----0------------0-----0----------5--------5--|
D|------------------------------------------------------------3-------3------|
A|---3-------------------2------------------0--------------------------------|
E|---------------------------------------------------------------------------|

"Cada vez que eu fizer o que já não se faz"

E|----------------0-------------------0-----------------0-----|
B|----------3-------------------3------------------3----------|
G|-------0-----0-------------0-----0------------0-----0-------|
D|------------------------------------------------------------|
A|---3-------------------2------------------0-----------------|
E|------------------------------------------------------------|

"Cada vez que passo a passo eu chegar em algum lugar"

E|------------------0----------------0------------------------------------|
B|------------3-----------------3-----------------1---------1----1--------|
G|--------2------2-----------1-----1------------2---------0------2--------|
D|---3------------------2---------------------2---------2--------2--------|
A|----------------------------------------0-------------------------------|
E|---------------------------------------------------3-----------2--------|

"Seja tua voz, sejam teus olhos, sejam teus pés"

E|--------------0---------------------------------------------------------|
B|--------1----------------------------1---------------1---------1--------|
G|-----0-----0--------------------2------------------0---------0----------|
D|----------------------------3------3-------------2-------2-P3-----------|
A|----------------------------------------3------3------------------------|
E|---3-----------------3--------------------------------------------------|

0 comentarios

    mostrar más comentarios

    ¿Conseguiste tocar?

    22tocaron1aún no

    ¡Graba un vídeo tocando O Meu Querer y envianoslo!

    00:00 / 00:00
    outros vídeos desta música
    repetirqualidadeautomática
    Outro vídeos desta música
      00:00 / 00:00
      automática
      OK