Cifra Club

Maldita Abusadora

Paulo Londra

Cifrado: Principal (guitarra y guitarra eléctrica)
tono: Em
E|----7s8-7-5-3-5--3-----7s8-7-5-3-5--5h7----|
B|--5------------------5---------------------|
G|-------------------------------------------|
D|-------------------------------------------|
A|-------------------------------------------|
E|-------------------------------------------|

E|------3-2-3-2-0--0-------0-----------------|
B|----5--------------3---3-------------------|
G|--4------------------4-----4---------------|
D|-------------------------------------------|
A|-------------------------------------------|
E|-------------------------------------------|

 //////////Guitarra con menos traste//////////

E|-------------------------------------------|
B|-------------------------------------------|
G|--4-4s5-4-2-0-0h2-0-----4s5-4-2-0-2-2h4----|
D|----------------------2--------------------|
A|-------------------------------------------|
E|-------------------------------------------|

E|-------------------------------------------|
B|-------------------------------------------|
G|------0------------------------------------|
D|----2---4--5-4-2--2-0---0-2----------------|
A|--2-------------------2-----2--------------|
E|--------------------------------5h6p5s3-0--|

 //////////Guitarra con mas traste//////////

E|-----19s20-19-17-15-17-15-----19s20-19-17-15-17-19--------|
B|--17-----------------------17-----------------------------|
G|----------------------------------------------------------|
D|----------------------------------------------------------|
A|----------------------------------------------------------|
E|----------------------------------------------------------|

E|--------15-14-15-14-12--12----------12--------------------|
B|-----17--------------------15-12-15----12---10h11p10s8----|
G|--16---------------------------------------------------9--|
D|----------------------------------------------------------|
A|----------------------------------------------------------|
E|----------------------------------------------------------|


Tab en toda la canción con Capo 3

     Em       C         Em 
E|------0X------3h5-3------X--|
B|------0X------5---5------X--|
G|------0X------5---5--2h4-X--|
D|------2X---0---------2---X--|
A|------2X---0-------------X--|
E|--0---0X-----------------X--|

    Am7     B7                   Am7     B7 
E|----------------| ----------------
B|----------------| o también  ----------------
G|-----0----------| -----0-------2--
D|---2---2-----4--| ---2---2-----1--
A|-0-------2---6--| -0-------2------
E|----------------| ----------------

Este tab se puede acompañar con este circulo de acordes, es algo especial:

   Em       C      2do Em (Opción 1)   2do Em (Opción 2)    Am7       B7 
1) -0-      -3-          -3-                 -3-            -0-       -2-
2) -0-      -5-          -0-   Estas dos     -5-            -1-       -0-
3) -0-      -5-          -0-   opciones son  -4-            -0-       -2-
4) -2-      -5-          -2-   validas       -2-            -2-       -1-
5) -2-      -3-          -2-                 -X-            -0-       -2-
6) -0-      -X-          -0-                 -X-            -X-       -X-

Em       C                Em 
 Sé cómo eres, eso me encanta
               Am7    B7        Em 
 Sé lo que hiciste, y lo que haces
                C              Em 
 Me tiene impaciente, cómo me trata
             Am7          B7 
 Es indescifrable lo que puede hacer

Em                       C 
 Tú tienes algo que a mi cuerpo lo acelera
Em                     Am7        B7 
 Tú tienes algo que me deja con intriga, mamá
Em                    C 
 Y eso me va a enloquecer
Em                    Am7 
 Ya no sé qué puedo hacer

B7            Em 
 Maldita abusadora
               C 
 Si me ve me ignora
            Em                       Am7 
 Y si yo lo hago es cuando más se enamora
B7           Em    C 
 Y eso no me va
              Em    Am7  B7 
 Eso me tiene mal

Em                C 
 Es una maldita mujer
                         Em 
 Que sólo me va a enloquecer

 Si la veo me altera
 Am7                B7 
 Siempre me supera, cómo me modela

Em                      C 
 Tiene algo que me hace bien
                           Em 
 Y algo que no me hace tan bien

 Pero eso no me argela
 Am7         B7 
 Así la aprendí a querer

Em 
 Tiene algo que atrapa
          C 
 Una superchica, pero anda sin capa
           Em 
 Su mirada penetra más que una bala
             Am7                B7 
 Boquita muy linda, pero lengua mala

            Em 
 Maldito perfume de uva
    C 
 Me hace viajar hasta tocar la luna
    Em 
 Su mensaje mata mi celu de una
    Am7             B7           Em 
 Me hace tratarla como a ninguna

    C                                   Em 
 La miro y el estrés que tengo se esfuma
    Am7                   B7            Em 
 La quiero a pesar que la cosa esté dura
    C                                 Em 
 La quiero porque su abrazo me asegura

    Am7                   B7          Em 
 La quiero, a pesar de que resta, me suma
    C                                  Em 
 La quiero, a pesar de que resta, me suma
    Am7                    B7          Em 
 La quiero, a pesar de que resta, me suma
    C                                  Em    Am7  B7 
 La quiero, a pesar de que resta, me suma

Em       C             Em 
 Sé cómo eres, eso me mata
               Am7    B7        Em 
 Sé lo que hiciste, y lo que haces
                C              Em 
 Me tiene impaciente, cómo me trata
             Am7          B7 
 Es indescifrable lo que puede hacer

Em                       C 
 Tú tienes algo que a mi cuerpo lo acelera
Em                     Am7        B7 
 Tú tienes algo que me deja con intriga, mamá
Em                    C 
 Y eso me va a enloquecer
Em                    Am7 
 Ya no sé qué puedo hacer

B7            Em 
 Maldita abusadora
               C 
 Si me ve me ignora
            Em                       Am7 
 Y si yo lo hago es cuando más se enamora
B7           Em    C 
 Y eso no me va
              Em    Am7  B7 
 Eso me tiene mal


Em    C    Em    Am7  B7 
Composición de Cristian Salazar / Daniel Echavarria Oviedo / Paulo Londra
31 vistas
    • ½ Tono
    • Am
    • Bbm
    • Bm
    • Cm
    • C#m
    • Dm
    • Ebm
    • Em
    • Fm
    • F#m
    • Gm
    • G#m
  • Agregar a la lista

    0 comentarios

    Ver todos los comentarios

    ¿Lograste tocar?

    0 Tocaron 0 Aún no

    ¡Graba un video tocando Maldita Abusadora y envíanoslo!

    00:00 / 00:00
    Outros vídeos desta música
    Repetir Calidad Automático
    Outros vídeos desta música
    00:00 / 00:00
    Automático
    OK