Cifra Club

Att

Pavement

Cifrado: Principal (guitarra y guitarra eléctrica)
Selo Cifra Club: esta cifra foi revisada para atender aos critérios oficiais da nossa Equipe de Qualidade.
tono: D
[Verse 1 and 2] 
E|---------------------------------------------------------------------------------------|
B|---------------------------------------------------------------------------------------|
G|-----------------------------4------4-4-4-4----2--------2-------4-----------4----------|
D|-7--4-4-4-4-4-7---4----7-4---4----4-4-4-4-4----------4-------4--0-4-4-4-4-4-0----------|
A|-5--5-5-5-5-5-5---5----5-5---2------2-2-2-2-----------------------x-x-x-x-x-x----------|
E|-0---| 0-0-0-0-0-------------------------------------------------5-5-5-5-5-5-5----------|
1. Maybe        Someones gonna save me        my heart is made of gravy         and the 
2. Open up....

E|---------------------------------------------------------------------------------------|
B|---------------------------------------------------------------------------------------|
G|-4----4-4----4-------------------------------------------------------------------------|
D|-0----0-0----0----7\4-4----4-----4p0----2-4--2--4----2---0-------0---0------0--------0-|
A|------------------0-0-0----0-----0------2-2--2--2----2---2-----2---2---2--------2------|
E|---------------------------------------------------------------------------------------|
   laps I swim from lunatics don't count. Open up your stockings,        pull out all the 


E|---------------------------------------------------------------------------------------|
B|---------------------------------------------------------------------------------------|
G|---------------------------------------------------------------------------------------|
D|-2---/--7---7-9---7--9----9----7--9----------------5--------------3-3-3-2-2-2-0--------|
A|-0------0---0-0---0--0----0----0--0----8-8-8-7-7-7-5--------------0-0-0-0-0-0-0--------|
E|---------------------------------------5-5-5-5-5-5-5--------------0-0-0-0-0-0-0--------|
   things you never wanted  room service calls,        room service calls
 
[Chorus] 
   D                                    A
E|-5--------5--------5--------5---------0---------0-------0-----------------------------|
B|-7--------7--------7--------7---------2---------2-------2-----------------------------|
G|-7--------7--------7--------7---------2---------2-------2-----------------------------|
D|-7--------7--------7--------7---------2---------2-------2-----------------------------|
A|-5--------5--------5--------5---------0---------0-------0---------------8-8-8-7-7-7-5-|
E|-0--------0--------0--------0-------------------------------------------5-5-5-5-5-5-5-|
1. Whatever whatever whatever whatever. Whatever whatever whatever I feel fine
2. Gimme Gimme Gimme...

E|--------------------------------------------------------------------------------------|
B|--------------------------------------------------------------------------------------|
G|--------------------------------------------------------------------------------------|
D|---------------3-3-3-3--------2-2-2---0-----------------------------------------------|
A|---------------0-0-0-0--------0-0-0---0-----------------------------------------------|
E|---------------0-0-0-0--------0-0-0---0-----------------------------------------------|
   gonna walk away     from all this or that

 
************************************

| x  Dead note
| p  Pull-off
| \  Slide down
| /  Slide up
 
Otros videos de esta canción
    0 exhibiciones
      • ½ Tono
      • A
      • Bb
      • B
      • C
      • Db
      • D
      • Eb
      • E
      • F
      • F#
      • G
      • Ab
    • Agregar a la lista

    Afinação da cifra

    Afinador online

      Ops (: Contenido disponible solo en portugués.
      OK