Cifra Club

Cut Your Hair

Pavement

Cifrado: Principal (guitarra y guitarra eléctrica)
Selo Cifra Club: esta cifra foi revisada para atender aos critérios oficiais da nossa Equipe de Qualidade.
tono: G
        D           C           G           Em              
Ooh ooh ooh ooh ooh ooh Ooh ooh ooh ooh ooh ooh           
    G                Em                                
Ooh oooooooooh      
        D           C           G           Em              
Ooh ooh ooh ooh ooh ooh Ooh ooh ooh ooh ooh ooh             
    G                Em                                
Ooh oooooooooh                                          
                                    

[Verse]

D                  C      G        Em
Darling, don't you go and cut your hair
       G                Em
Do you think it's gonna make him change?
D          C          G       Em
I'm just a boy with a new haircut
             G           Em
And that's a pretty nice haircut
D                  C      G             Em
Charge it like a puzzle, Hitmen wearing muzzles
G           Em
Hesitate to die
      D       C          G              Em
look around, around, the second drummer drowned
    G            Em
His telephone is found


[Interlude]
                                                          
        D           C           G           Em                
Ooh ooh ooh ooh ooh ooh Ooh ooh ooh ooh ooh ooh              
    G                Em                                  
Ooh oooooooooh                                          
        D           C           G           Em                
Ooh ooh ooh ooh ooh ooh Ooh ooh ooh ooh ooh ooh              
    G                Em                                  
Ooh oooooooooh    


[Verse]

D              C      G           Em
Music scene is crazy, bands start up
G        Em
Each and every 
D          C           G              Em
day, I saw another one just the other day
  G           Em
A special new band
  D                C       G                Em
I don't remember lying, I don't remember a line
  G                Em
I don't remember a word
            D           C          G         Em
but I don't care, don't care, I really don't care
        G                 Em
Did you see the drummer's hair


[Interlude]
                                                            
        D           C           G           Em                
Ooh ooh ooh ooh ooh ooh Ooh ooh ooh ooh ooh ooh          
    G                Em                                   
Ooh oooooooooh       
        D           C           G           Em                
Ooh ooh ooh ooh ooh ooh Ooh ooh ooh ooh ooh ooh          
    G                Em                                   
Ooh oooooooooh                                          
                                   

[Solo]

D - C - G - Em - G - Em   (6x)


E|----------5~~~~~~~~--------------------------5~~~~~~~~-------------------|
B|----3--------------------3~~---------3-----------------------------------|
G|----------------------------(0)------------------------------------------|
D|-------------------------------------------------------------------------|
A|-------------------------------------------------------------------------|
E|-------------------------------------------------------------------------|


E|--10-10---------10-10--------10-10---------------------------------------|
B|---------10-10--------10-10---------10-10--------------------------------|
G|-------------------------------------------------------------------------|
D|-------------------------------------------------------------------------|
A|-------------------------------------------------------------------------|
E|-------------------------------------------------------------------------|


E|--10------10------10------10------10------10-----------------------------|
B|------10------10------10------10------10------10-------------------------|
G|-------------------------------------------------------------------------|
D|-------------------------------------------------------------------------|
A|-------------------------------------------------------------------------|
E|-------------------------------------------------------------------------|

(strum each note multiple times very fast) 
E|--10----12----14----12----10----12----10---------------------------------|
B|------------------------------------------10-----------------------------|
G|-------------------------------------------------------------------------|
D|-------------------------------------------------------------------------|
A|-------------------------------------------------------------------------|
E|-------------------------------------------------------------------------|

E|--10----12----14----12----10\9/10----14----12----10----12----10~~--------|
B|-------------------------------------------------------------------------|
G|-------------------------------------------------------------------------|
D|-------------------------------------------------------------------------|
A|-------------------------------------------------------------------------|
E|-------------------------------------------------------------------------|


[Verse]

D            C         G       Em 
advertising: looks and chops a must
G      Em
no BIG HAIR!
D            C        G         Em
songs mean a lot when songs are bought
    G      Em
and so are you
D        C           G        Em
face right down to the practice room
G             Em    
attention and fame's a 
D      C      G      Em     
career career career career 
G      Em
career career 

   
[Interlude]
                                                            
        D           C           G           Em              
Ooh ooh ooh ooh ooh ooh Ooh ooh ooh ooh ooh ooh              
    G                Em                                   
Ooh oooooooooh  
        D           C           G           Em              
Ooh ooh ooh ooh ooh ooh Ooh ooh ooh ooh ooh ooh              
    G                Em                                   
Ooh oooooooooh                                                                    


[Outro]

D   C   G   Em   G   Em   C



************************************

| (n)  Ghost note
| /    Slide up
| \    Slide down
| ~    Vibrato
Otros videos de esta canción
    43 exhibiciones
      • ½ Tono
      • A
      • Bb
      • B
      • C
      • Db
      • D
      • Eb
      • E
      • F
      • F#
      • G
      • Ab
    • Agregar a la lista

    Afinação da cifra

    Afinador online

      Ops (: Contenido disponible solo en portugués.
      OK