Cifra Club

Fin

Pavement

Cifrado: Principal (guitarra y guitarra eléctrica)
Selo Cifra Club: esta cifra foi revisada para atender aos critérios oficiais da nossa Equipe de Qualidade.
tono: G
Bm                           D
Open call for prison architects
Bm                           D
Send me your blueprints ASAP
Am                                                 G
Stack the walls such that I cannot breathe
Bm                 A
Man is breedin' forever,
                G
Because of the weather
                              D
I hope soon to leave from the east

G
No more absolutes, 
E
no more absolutes
D                         C                                    G
Stick your penitentiary clothes inside the vent And run along, Leigh

Bm                             D
Amateur seasalt gatherers colonised
Bm
They're good enough for Conrad Hilton, 
           D
Not good enough for my eyes
   A
I trust you will tell me 
                 G
If I am making a fool of myself
Bm                 A
Man is breedin' forever,
               G
Because of the weather
                              D
They come out and blister the sea, oh yeah

E|-4---4---4---4-5-4---4---4---4---|-----0--2--4-----0--2--4--|
B|---5---5---5---------------------|--3-----------2-----------|
G|-------------------4---4---4---4-|--4-----------2-----------|
D|---------------------------------|--------------------------| 2x
A|---------------------------------|--------------------------|
E|---------------------------------|--------------------------|
           
E|-7---7---7---7-9-7---7---7---7-9-12----12----12----12----12----12----12----12------0-|
B|-----------------------------------------------------------------------------------0-|
G|---9---9---9-------8---9---9--------14----14----14----14----13----13----13----14---1-|
D|-----------------------------------------------------------------------------------2-|
A|-----------------------------------------------------------------------------------2-|
E|-----------------------------------------------------------------------------------0-|

E|-4---4---4---4-5-4---4---4---4---4---4---4---4-5-4---4---4---4-5-|
B|-------------------------------------------0---------------------|
G|---6---6---6-------4---4---4---4---6---6-----------4---4---4-----|
D|-----------------------------------------------------------------|
A|-----------------------------------------------------------------|
E|-----------------------------------------------------------------|

E|-0---0---0---0-2-0---0---0---0---|
B|-------0---------------0---0---0-|
G|---2-------2-------2-------------|
D|---------------------------------|
A|---------------------------------|
E|---------------------------------|

E|-7-9-7-9-7---7-9-7---7---7---7-9-12----12----12----12----12----12----12----12----|
B|---------------------------------------------------------------------------------|
G|-----------9-------8---8---8--------14----14----14----14----13----13----13----14-|
D|---------------------------------------------------------------------------------|
A|---------------------------------------------------------------------------------|
E|---------------------------------------------------------------------------------|
Otros videos de esta canción
    9 exhibiciones
      • ½ Tono
      • A
      • Bb
      • B
      • C
      • Db
      • D
      • Eb
      • E
      • F
      • F#
      • G
      • Ab
    • Agregar a la lista

    Afinação da cifra

    Afinador online

      Ops (: Contenido disponible solo en portugués.
      OK