Cifra Club

Hit The Plane Down

Pavement

Cifrado: Principal (guitarra y guitarra eléctrica)
Selo Cifra Club: esta cifra foi revisada para atender aos critérios oficiais da nossa Equipe de Qualidade.
tono: F
   Spiral:
E|----------------------------|
B|----------------------------|
G|----------------------------|
D|----------------------------|
A|----------------------------|
E|--6--6--3---3-6--6-6--3--3--| x10 (through the whole song)

   SM:
E|--(12)\----------------------------|
B|---11-\----------------------------|
G|---12-\----------------------------|
D|-----------------------------------|
A|-----------------------------------|
E|-----------------------------------| x5
   (use whammy bar to pitch down)

E|-----------------------------------------------------------------|
B|-----------------------------------------------------------------|
G|-12--12--12--12--12--12--12--12--12--12--12--12--12--12--12--12--|
D|-----------------------------------------------------------------|
A|-----------------------------------------------------------------|
E|-----------------------------------------------------------------| x2



Chorus:

   SM:
E|-----------------|
B|-----------------|
G|-----------------|
D|--5----0----3----|
A|--5----0----3----|
E|-----------------| x4
                                                                           
 
 Spiral:         
E|-----------------|
B|-----------------|
G|-----------------|
D|-10----5----8----|
A|-10----5----8----|
E|--8----3----6----| x4
Otros videos de esta canción
    3 exhibiciones
      • ½ Tono
      • A
      • Bb
      • B
      • C
      • Db
      • D
      • Eb
      • E
      • F
      • F#
      • G
      • Ab
    • Agregar a la lista

    Afinação da cifra

    Afinador online

      Ops (: Contenido disponible solo en portugués.
      OK