Cifra Club

I Love Perth

Pavement

Cifrado: Principal (guitarra y guitarra eléctrica)
Selo Cifra Club: esta cifra foi revisada para atender aos critérios oficiais da nossa Equipe de Qualidade.
tono: B
E|--7-------6-------4-------2-------0-------7-------2--------------------|
B|--7-------7-------4-------2-------0-------7-------2--------------------|
G|--8-------8-------5-------3-------1-------8-------3--------------------|
D|--9-------8-------6-------4-------2-------9-------4--------------------|
A|--9-------6-------6-------4-------2-------9-------4--------------------|
E|--7-------6-------4-------2-------0-------7-------2--------------------|

Do that twice...

E|--4-------2-------4-------2-------0-------7-------2--------------------|
B|--4-------2-------4-------2-------0-------7-------2--------------------|
G|--5-------3-------5-------3-------1-------8-------3--------------------|
D|--6-------4-------6-------4-------2-------9-------4--------------------|
A|--6-------4-------6-------4-------2-------9-------4--------------------|
E|--4-------2-------4-------2-------0-------7-------2--------------------|


E|--7-------6-------4-------2-------0-------2-------4-------2------0-----|
B|--7-------7-------4-------2-------0-------2-------4-------2------0-----|
G|--8-------8-------5-------3-------1-------3-------5-------3------1-----|
D|--9-------8-------6-------4-------2-------4-------6-------4------2-----|
A|--9-------6-------6-------4-------2-------4-------6-------4------2-----|
E|--7-------6-------4-------2-------0-------2-------4-------2------0-----|


E|--2-------7------------------------------------------------------------|
B|--2-------7------------------------------------------------------------|
G|--3-------8------------------------------------------------------------|
D|--4-------9------------------------------------------------------------|
A|--4-------9------------------------------------------------------------|
E|--2-------7------------------------------------------------------------|


Lyrics:

Everyone is carrying on in this house
Afraid to live there
I can't even watch
The things you do and the people you know.

A groovy scene in Australia,
I will move
Take my surfboard
Maybe I'll groove
Noise addicts and other folks, oh yeah!

Our hearts were blanketed with it all,
And then I took off the blanket and saw
The pretty shawl you bought for me

You're gorgeous
I'm pretty handsome too
We make a pair,
Me and you
Me and you forever on and on and on and on
Me and you forever on and on
Otros videos de esta canción
    0 exhibiciones
      • ½ Tono
      • A
      • Bb
      • B
      • C
      • Db
      • D
      • Eb
      • E
      • F
      • F#
      • G
      • Ab
    • Agregar a la lista

    Afinação da cifra

    Afinador online

      Ops (: Contenido disponible solo en portugués.
      OK