Cifra Club

Internal K-Dart

Pavement

Cifrado: Principal (guitarra y guitarra eléctrica)
Selo Cifra Club: esta cifra foi revisada para atender aos critérios oficiais da nossa Equipe de Qualidade.
tono: D
E|-----------------------------------------------------------------------------|
B|-----------------------------------------------------------------------------|
G|-----------------------------------------------------------------------------|
D|--8|-x-x-x-8|-0-7|-x-x-x-7|-0--| X2  --6|-x-x-x-6|-0-3|-x-x-x-7|--  X2  -----|
A|--8|-x-x-x-8|-0-5|-x-x-x-7|-0----------6|-x-x-x-6|-0-3|-x-x-x-5|-------------|
E|--8|-x-x-x-8|-0----x-x-x-7|-0----------6|-x-x-x-6|-0-3|-x-x-x----------------|

E|---------------------------------------------|
B|---------------------------------------------|
G|---------------------------------------------|
D|--6|-x-x-x-8|-0-5|-x-x-x-6|-0-3| ||||||||-----|
A|--6|-x-x-x-8|-0-5|-x-x-x-6|-0-3| ||||||||-----|
E|--6|-x-x-x-8|-0-5|-x-x-x-6|-0-3| ||||||||-----|


[Chorus] 0:21 - 0:27


E|--------------------------------------------|
B|--------------------------------------------|
G|--------------------------------------------|
D|--7| |--5-7-8-7||--5-7-8-7||--5-7-8-7|||-----|
A|--5| |--3-5-6-5||--3-5-6-5||--3-5-6-5|||-----|
E|--------------------------------------------|


[Verse 2] 0:27 - 0:49


E|-----------------------------------------------------------------------------|
B|-----------------------------------------------------------------------------|
G|-----------------------------------------------------------------------------|
D|--8|-x-x-x-8|-0-7|-x-x-x-7|-0--| X2  --6|-x-x-x-6|-0-3|-x-x-x-7|--  X2  -----|
A|--8|-x-x-x-8|-0-5|-x-x-x-7|-0----------6|-x-x-x-6|-0-3|-x-x-x-5|-------------|
E|--8|-x-x-x-8|-0----x-x-x-7|-0----------6|-x-x-x-6|-0-3|-x-x-x----------------|

E|---------------------------------------------|
B|---------------------------------------------|
G|---------------------------------------------|
D|--6|-x-x-x-8|-0-5|-x-x-x-6|-0-3| ||||||||-----|
A|--6|-x-x-x-8|-0-5|-x-x-x-6|-0-3| ||||||||-----|
E|--6|-x-x-x-8|-0-5|-x-x-x-6|-0-3| ||||||||-----|


[Chorus] 0:49 - 0:55


E|---------------------------------------------|
B|---------------------------------------------|
G|---------------------------------------------|
D|--7| |--5-7-8-7||--5-7-8-7||--5/10-10-8-7-----|
A|--5| |--3-5-6-5||--3-5-6-5||--3/8--8--6-5-----|
E|---------------------------------------------|


[Outro] 0:55 - 1:51


E|-----------------------------------------------------------------|
B|-----------------------------------------------------------------|
G|--3-3-x-3| |||-x-x-3-3-x-3||||-x-x-3-3-x-3||||/10|||||||-8|||-----| X3
D|--3-3-x-3| |||-x-x-3-3-x-3||||-x-x-3-3-x-3||||/10|||||||-8|||-----|
A|--3-3-x-3| |||-x-x-3-3-x-3||||-x-x-3-3-x-3||||/10|||||||-8|||-----|
E|-----------------------------------------------------------------|

E|--------------------------------------------------------------------|
B|--3-3-x-3| |||-x-x-3-3-x-3||||-x-x-3-3-x-3||||/10|||||||-8|||--3-----|
G|--3-3-x-3| |||-x-x-3-3-x-3||||-x-x-3-3-x-3||||/10|||||||-8|||--3-----|
D|--3-3-x-3| |||-x-x-3-3-x-3||||-x-x-3-3-x-3||||/10|||||||-8|||--3-----|
A|--1-1-x-1| |||-x-x-1-1-x-1||||-x-x-1-1-x-1||||/8 |||||||-6|||--1-----|
E|--------------------------------------------------------------------|



************************************
 
|   Repeat Note
x   Muted Strum
/   Slide up
 
Otros videos de esta canción
    0 exhibiciones
      • ½ Tono
      • A
      • Bb
      • B
      • C
      • Db
      • D
      • Eb
      • E
      • F
      • F#
      • G
      • Ab
    • Agregar a la lista

    Afinação da cifra

    Afinador online

      Ops (: Contenido disponible solo en portugués.
      OK