Cifra Club

Kris Kraft

Pavement

Cifrado: Principal (guitarra y guitarra eléctrica)
Selo Cifra Club: esta cifra foi revisada para atender aos critérios oficiais da nossa Equipe de Qualidade.
tono: Am
Intro (0:00, 0:58, 1:57):

E|-------------------|--------------|-------------------------|
B|-------------------|--------------|-------------------------|
G|----0---0----------|----0---0-----|----0---0---0---0---0-5--|
D|--3---3---0--------|--3---3-------|--3---3---3---3---3------|
A|-------------0--0--|----------0---|-------------------------|
E|-------------0--0--|----------0---|-------------------------|
      [Play twice]      [Play twice]

E|-----------------------------------|
B|-----------------------------------|
G|-8--8--x-x-x-x-8--7---7--x-x-x-x-7-|
D|-7--7--x-x-x-x-7--7---7--x-x-x-x-7-|
A|-7--7--x-x-x-x-7--7---7--x-x-x-x-7-|
E|-7--7--x-x-x-x-7--7---7--x-x-x-x-7-|


E|------------------------------------------|
B|------------------------------------------|
G|-x-x-7--8--8--x-x-x-x-8--10---10-10-10-10-|
D|--x-x-7--7--7--x-x-x-x-7---7----7--7--7--7-|
A|-x-x-7--7--7--x-x-x-x-7---7----7--7--7--7-|
E|--x-x-7--7--7--x-x-x-x-7---7----7--7--7--7-|


Verse (0:30, 1:28):

E|--------------------------------|
B|-12-12--15--15------------------|
G|-12-12--12--12---12-12--12--12--|
D|-12-12--12--12---12-14--14--12--|
A|-----------------12-12--12--12--|
E|--------------------------------|
           [Play 8 times]

E|-----------------------------------|
B|-----------------------------------|
G|-8--8--x-x-x-x-8--7---7--x-x-x-x-7-|
D|-7--7--x-x-x-x-7--7---7--x-x-x-x-7-|
A|-7--7--x-x-x-x-7--7---7--x-x-x-x-7-|
E|-7--7--x-x-x-x-7--7---7--x-x-x-x-7-|


E|------------------------------------------|
B|------------------------------------------|
G|-x-x-7--8--8--x-x-x-x-8--10---10-10-10-10-|
D|--x-x-7--7--7--x-x-x-x-7---7----7--7--7--7-|
A|-x-x-7--7--7--x-x-x-x-7---7----7--7--7--7-|
E|--x-x-7--7--7--x-x-x-x-7---7----7--7--7--7-|
Otros videos de esta canción
    0 exhibiciones
      • ½ Tono
      • Am
      • Bbm
      • Bm
      • Cm
      • C#m
      • Dm
      • Ebm
      • Em
      • Fm
      • F#m
      • Gm
      • G#m
    • Agregar a la lista

    Afinação da cifra

    Afinador online

      Ops (: Contenido disponible solo en portugués.
      OK