Cifra Club

Perfume - V

Pavement

Cifrado: Principal (guitarra y guitarra eléctrica)
Selo Cifra Club: esta cifra foi revisada para atender aos critérios oficiais da nossa Equipe de Qualidade.
tono: G
Pavememt
"Perfume-V"
tabbed by Liam Fletcher

Intro
  D5       E5
e-------------------------------------------------|
B-7--7--7--9---9--9--9--9--9--9--9--9--9--9--9--9-|
G-7--7--7--9---9--9--9--9--9--9--9--9--9--9--9--9-|
D-7--7--7--9---9--9--9--9--9--9--9--9--9--9--9--9-|
A-5--5--5--7---7--7--7--7--7--7--7--7--7--7--7--7-|
D-------------------------------------------------|

Verse
  E5
e---
B-9-
G-9-
D-9-
A-7-
D---

and

  E5
e-----------|
B-9-9-9-9-9-|
G-9-9-9-9-9-|
D-9-9-9-9-9-|
A-7-7-7-7-7-|
D-----------|

almost tremolo picked, but just not

Pre-Chorus
  D5
e------------------------------------------------|
B-7--7--7--7--7--7--7--7--7--7--7--7--7--7--7--7-|
G-7--7--7--7--7--7--7--7--7--7--7--7--7--7--7--7-|
D-7--7--7--7--7--7--7--7--7--7--7--7--7--7--7--7-|
A-5--5--5--5--5--5--5--5--5--5--5--5--5--5--5--5-|
D------------------------------------------------|

Chorus
  G5                    F5
e-----------------------------------------------|
B-----------------------------------------------|
G-----------------------------------------------|
D-5---5--5--5--5--5--5--3---3--3--3--3--3--3--3-|
A-5---5--5--5--5--5--5--3---3--3--3--3--3--3--3-|
D-5---5--5--5--5--5--5--3---3--3--3--3--3--3--3-|

  F5                    C5
e----------------------------------------------|
B-----------------------5--5--5--5--5--5--5--5-|
G-----------------------5--5--5--5--5--5--5--5-|
D-3---3--3--3--3--3--3--5--5--5--5--5--5--5--5-|
A-3---3--3--3--3--3--3--3--3--3--3--3--3--3--3-|
D-3---3--3--3--3--3--3-------------------------|

Outro
  D5        E5
e-------------|
B-7------7--9-|
G-7------7--9-|
D-7------7--9-|
A-5------5--7-|
D-------------|
Otros videos de esta canción
    23 exhibiciones
      • ½ Tono
      • A
      • Bb
      • B
      • C
      • Db
      • D
      • Eb
      • E
      • F
      • F#
      • G
      • Ab
    • Agregar a la lista

    Afinação da cifra

    Afinador online

      Ops (: Contenido disponible solo en portugués.
      OK