Cifra Club

Spit on a stranger

Pavement

Cifrado: Principal (guitarra y guitarra eléctrica)
Selo Cifra Club: esta cifra foi revisada para atender aos critérios oficiais da nossa Equipe de Qualidade.
tono: D
Introdução: Contrabaixo
G------------------------------|----------------------------|
D------------------------------|----------------------------|
A--5--5\12--12--9--9--7--9--5--|--5--5\12--12--9\14--12--5--|
E------------------------------|----------------------------|
                                                       00:27                         
G-----------------------------|-----------------------|-------|
D-----------------------------|-----------------------|-------|
A--5\12--12--10--10--9--7--5--|--7--3-----5--2--2--0--|-0-0-0-|
E-----------------------------|-----------------------|-------|

Introdução: Guitarra1 (2x cada parte)   
Riff1                                   
E-------------------------------------------------------------|
B--------3--------------3--------------3--------------3-------|
G-----2-----2--------2-----2--------2-----2--------2-----2----|
D--0----------------------------------------------------------|
A-----------------4-----------------------------0-------------|
E--------------------------------2-----------3----------------|
Riff2                                                           No final da introd. 00:27
E--------------------------------------------------------------|----------|
B--------3--------------3--------------3--------------3-----3--|----------|
G-----2-----2--------2-----2--------2-----2--------2-----2-----|-2--2--2--|
D--0-----------------------------------------------------------|-2--2--2--|
A-----------------3-----------------------------0--------------|----------|
E--------------------------------3-----------------------------|----------|
                                                                            


Primeira parte:  00:33
Nessa parte a guitarra é como na introdução.

Baixo
G------------------------------|----------------------------|
D------------------------------|----------------------------|
A--5--5\12--12--9--9--7--9--5--|--5--5\12--12--9\14--12--5--|
E------------------------------|----------------------------|                                                                                           
G-----------------------------|-----------------------------|
D-----------------------------|-----------------------------|
A--5\12--12--10--10--9--7--5--|--5\12--12--10--10--9--7--5--|
E-----------------------------|-----------------------------|


Refrão  00:56
 Baixo 2x
G------------------------------------------------------------------------|
D------------------------------------------------------------------------|
A------------------------------------------------------------------------|
E---7--7--7-----7--5--5--5-----5--4--4--4--4--4-----0-----3-----3--3--3--|

 1:16
G---------------------------------------|
D---------------------------------------|
A------------------5-----5--------------|
E------3-----3--3-----------0-----0--3--|



Parte 1 ( Como na introdução - Riff1 2x e Riff2 2x)

    (Riff1 2x e Riff2 2x)
        However you feel,
        whatever it takes,
        whenever it's real,
        whatever awaits,
        whatever you need,
        however so slight,
        whenever it's real, 
        whenever it's right.

   Bm                         Bm/A                              E
   I've been thinking long and hard about the things you said to me,
 G                D
   like a bitter stranger,
   Bm                          Bm/A                         E
   and now I see the long, the short, the middle and what's in between,
 G                    D
   I could spit on a stranger,
     E           G
   (pour/pull me out)    
 G                  D
   you're a bitter stranger.
     E      G
   (pour me out)



   (Riff1 2x & Riff2 2x)
      Whatever you feel,
      whatever it takes,
      whenever it's real,
      whatever awaits me,
      whatever you need,
      however so slight,
      whenever it leads,
      whenever it's right.


   Bm                    Bm/A
   Honey I'm a prize and you're a catch 
                E
   and we're a perfect match,
 G                 D
   like two bitter strangers,
   Bm 
   and now I see the long, 
       Bm/A                  E
   the short of it and I can make it last,
 G                   D
   I could spit on a stranger,
    E       G
   (pour me out)
 G                 D
   you're a bitter stranger,
    E       G
   (pour me out)
 G                   D 
   I could spit on a stranger,
    E       G
   (pour me out)
 G                 D  
   you're a bitter stranger.
    E       G
   (pour me out)
                              D (Riff3) 
   I see the sunshine in your eyes,
 G                                  D (Riff3)  
   I'll try the things you'll never try,
 G                   
   I'll be the one that leaves 
        D      E2     G2   (slide D)
   you high...high...high
 
  (Riff3 2X)

 Riff3
E---2--2--0--2--0--2--3-|
B---3--3--3--3--3--3--3-|
G---2--2--0--2--0--2--0-|
D---0--0-----0-----0--0-|
A---------------------2-|
E---------------------3-|       

 Final:                                                                               
E--------------------------|
B--------------------------|
G------------2-------------|
D---0--2--4-----4--2\4--4--|
A--------------------------|
E--------------------------|

Acordes:
    eadgbe
D - 000232
E - 022100
E2- xxx454
G - 320033
G2- xxx787
Bm- 224432
Bm/A- 004432




        Tablaturado por Jean R.C. de Almeida    

        Outras tab's, Pink Floyd, Sonic Youth, The Breeders...
        Jean R. C. de Almeida.


        
Otros videos de esta canción
    146 exhibiciones
      • ½ Tono
      • A
      • Bb
      • B
      • C
      • Db
      • D
      • Eb
      • E
      • F
      • F#
      • G
      • Ab
    • Agregar a la lista

    Afinação da cifra

    Afinador online

      Ops (: Contenido disponible solo en portugués.
      OK