Cifra Club

Spizzle Trunk

Pavement

Cifrado: Principal (guitarra y guitarra eléctrica)
Selo Cifra Club: esta cifra foi revisada para atender aos critérios oficiais da nossa Equipe de Qualidade.
tono: A
E|--------------------------------------------------------------------------------|
B|--------------------------------------------------------------------------------|
G|--------------------------------------------------------------------------------|
D|-------------------------------------| X7  -------------------------------------|
A|--5-5-7-5--5-5-7-5--5-5-7-5--4-4-7-5---------5-5-7-5--5-5-7-5--5-5-7-5--5-5-----|
E|--5-5-5-5--5-5-5-5--5-5-5-5--4-4-7-5---------5-5-5-5--5-5-5-5--5-5-5-5--5-5-----|


[Chorus] 0:21 - 0:32


E|--------------------------------------------------------|
B|--------------------------------------------------------|
G|--------------------------------------------------------|
D|--7| |||||-x-2|-0-7||||||-9|||-7||||||-9|||-7|||||||-----|
A|--5| |||||-x-2|-0-5||||||-7|||-5||||||-7|||-7|||||||-----|
E|------------2|-0----------------------------------------|


[Verse 2] 0:32 - 0:43


E|--------------------------------------------------------------------------------|
B|--------------------------------------------------------------------------------|
G|--------------------------------------------------------------------------------|
D|-------------------------------------| X3  -------------------------------------|
A|--5-5-7-5--5-5-7-5--5-5-7-5--4-4-7-5---------5-5-7-5--5-5-7-5--5-5-7-5--5-5-----|
E|--5-5-5-5--5-5-5-5--5-5-5-5--4-4-7-5---------5-5-5-5--5-5-5-5--5-5-5-5--5-5-----|


[Chorus] 0:43 - 0:54


E|------------------------------------------------------|
B|------------------------------------------------------|
G|------------------------------------------------------|
D|--7| |||||-9|||-7||||||-9|||-7||||||-9|||-7|||||||-----|
A|--5| |||||-7|||-5||||||-7|||-5||||||-7|||-7|||||||-----|
E|------------------------------------------------------|


[Verse 3] 0:54 - 1:05


E|--------------------------------------------------------------------------------|
B|--------------------------------------------------------------------------------|
G|--------------------------------------------------------------------------------|
D|-------------------------------------| X3  -------------------------------------|
A|--5-5-7-5--5-5-7-5--5-5-7-5--4-4-7-5---------5-5-7-5--5-5-7-5--5-5-7-5--5-5-----|
E|--5-5-5-5--5-5-5-5--5-5-5-5--4-4-7-5---------5-5-5-5--5-5-5-5--5-5-5-5--5-5-----|


[Outro] 1:05 - 1:24


E|------------------------------------------------------------------------------|
B|------------------------------------------------------------------------------|
G|------------------------------------------------------------------------------|
D|--7| |||||-x-2|-0-7||||||-9|||-7||-9|||-7||-9|||-7--9--7--9--7--9--7--9--4-----|
A|--5| |||||-x-2|-0-5||||||-7|||-5||-7|||-5||-7|||-5--7--5--7--5--7--5--7--4-----|
E|------------2|-0--------------------------------------------------------4-----|
Otros videos de esta canción
    0 exhibiciones
      • ½ Tono
      • A
      • Bb
      • B
      • C
      • Db
      • D
      • Eb
      • E
      • F
      • F#
      • G
      • Ab
    • Agregar a la lista

    Afinação da cifra

    Afinador online

      Ops (: Contenido disponible solo en portugués.
      OK