Cifra Club

Alrighty Aphrodite

Peach Pit

Cifrado: Principal (guitarra y guitarra eléctrica)
tono: A (con acordes en la forma de G) Capotraste en 2ª casa
[Intro]

E|----------------------------------------------------------|
B|----------------4-----------------------------------------|
G|----------2-4-5---5-5-5-4---4h5---------------------------|
D|--1-1-1h2-----------------5-----5-4-2---------------------|
A|----------------------------------------------------------|
E|----------------------------------------------------------|

E|----------------------2-2--2-2--2-------------------------|
B|----------------------0-0--0-0--0-------------------------|
G|------0-2--2-2-2-2-0--2-2--2-2--2-------------------------|
D|-2-0h20-0--0-0-0-0-0--1-1--1-1--1-------------------------|
A|-3---30-0--0-0-0-0-0--2-2--2-2--2-------------------------|
E|-3---3----------------------------------------------------|

E|----------------------------------------------------------|
B|---------------4-4/7---5----------------------------------|
G|-1-1-1h2-2-4-5-------5---5-4-7----------------------------|
D|-2-2-2----------------------------------------------------|
A|----------------------------------------------------------|
E|----------------------------------------------------------|

E|----------------------2-2--2-2--0-0-----------------------|
B|----------------------0-0--0-0--0-0-----------------------|
G|------0-2--2-2-2-2-0--2-2--2-2--0-0-----------------------|
D|-2-0h20-0--0-0-0-0-0--1-1--1-1--2-2-----------------------|
A|-3---30-0--0-0-0-0-0--2-2--2-2--3-3-----------------------|
E|-3---3----------------------------------------------------|

[Primeira Parte]

C       B7               Em
Take a seat back in your clamshell
        C         G              B7
If the oceans not enough, nor am I
C      B7           Em
Rollin in, I feel a dark swell
C                G          B7
Crawling up the skin of my spine

[Refrão]

C/G         D               Em
    If I'd known you sold on maybe
C/G               D             Em
    I'd a let you waste another guy
C/G       D            Em
    Well Alrighty Aphrodite
C/G              D            B7
    Go whip that red for other eyes

[Segunda Parte]

C        B7              Em
Run your morning bath in sea foam
C               G            B7
Soak your milky skin in the tide
C      B7                     Em
Little pearl you think you're in gold
    C              G            B7
But I can see the dirt in your lines

[Refrão]

C/G         D               Em
    If I'd known you sold on maybe
C/G               D             Em
    I'd a let you waste another guy
C/G       D            Em
    Well Alrighty Aphrodite
C/G              D            B7
    Go whip that red for other eyes

[Solo]

E|----------------------------------------------------------|
B|------------------3-5-5-5/8-5-8/10-8-10/12-10-12/15-12-12-|
G|-----2-4b-2---2-4-----------------------------------------|
D|-2-5--------5---------------------------------------------|
A|----------------------------------------------------------|
E|----------------------------------------------------------|

E|----------------------------------------------------------|
B|-----------12---------------------------------------------|
G|----12h14----14p12----12-------12-------------------------|
D|--------------------14----12h14----14p12------------------|
A|----------------------------------------14-12h14----------|
E|----------------------------------------------------------|

E|----------------------------------------------------------|
B|-------------------------------15-------------------------|
G|-------12h14-14b16-14-12-14b16----14b16-------------------|
D|-12h14----------------------------------------------------|
A|----------------------------------------------------------|
E|----------------------------------------------------------|

E|----------------------------------------------------------|
B|---------12-----------------------------------------------|
G|---12h14----14-12-----2h4/9-9-9-7---7-9b11----------------|
D|-------------------2h5-------------9----------------------|
A|----------------------------------------------------------|
E|----------------------------------------------------------|

E|----------------------------------------------------------|
B|---/15-15-15-15-15-12-------------------------------------|
G|-9--------------------14-12-------------------------------|
D|----------------------------------------------------------|
A|----------------------------------------------------------|
E|----------------------------------------------------------|

E|----------------------17----------------------------------|
B|----15b17-15-12-15b17----15b17-15-12----------------------|
G|----------------------------------------------------------|
D|----------------------------------------------------------|
A|----------------------------------------------------------|
E|----------------------------------------------------------|

E|----------------------------------------------------------|
B|-12-15p12-------------------------------------------------|
G|----------14-12-14b16-14-12-------------------------------|
D|----------------------------14----------------------------|
A|-------------------------------2-4------------------------|
E|-------------------------------0-2------------------------|


[Refrão/ Final]

C/G         D               Em
    If I'd known you sold on maybe
C/G               D             Em
    I'd a let you waste another guy
C/G       D            Em
    Well Alrighty Aphrodite
C/G              D            B7
    Go whip that red for other eyes

C/G         D               Em
    If I'd known you sold on maybe
C/G               D             Em
    I'd a let you waste another guy
C/G       D            Em
    Well Alrighty Aphrodite
C/G              D            B7
    Go whip that red for other eyes
00:00 / 00:00
Otros videos de esta canción
Repetir
Otros videos de esta canción
Compositor no encontrado.
Colaboración y revisión:
  • Ana Stragliotto
  • bruno
271 exhibiciones
    • ½ Tono
    • A
    • Bb
    • B
    • C
    • Db
    • D
    • Eb
    • E
    • F
    • F#
    • G
    • Ab
  • Agregar a la lista
    00:00 / 00:00
    OK