Cifra Club

Just Breathe

Pearl Jam

Cifrado: Principal (guitarra y guitarra eléctrica)
tono: C
[Intro] C  G  C  G

[Tab - Dedilhado]

Parte 1 de 4
   C
E|----------------3-------3-----------------|
B|-1-------1--------------------------------|
G|-----0-------0------0-------0-------------|
D|---2-------2------2-------2---------------|
A|-3-----3--------3-----3-------------------|
E|------------------------------------------|

Parte 2 de 4
E|-0-------0-----3---5----------------------|
B|-----------------1------------------------|
G|-----0-------0-------0--------------------|
D|---2-------2------------------------------|
A|-3-----3-------3---3----------------------|
E|------------------------------------------|

Parte 3 de 4
   G
E|---------------0-------0-------------------|
B|-3-------3---------------------------------|
G|-----0-------0-----0-------0---------------|
D|---0-------0-----0-------0-----------------|
A|-------------------------------------------|
E|-3-----3-------3-----3---------------------|

Parte 4 de 4
E|-------------------------------------------|
B|-3-------3-----0---3-----------------------|
G|-----0-------0--------0--------------------|
D|---0-------0-----0-------------------------|
A|-------------------------------------------|
E|-3-----3-------3---3-----------------------|

Parte 1 de 4
   C
E|----------------3-------3-----------------|
B|-1-------1--------------------------------|
G|-----0-------0------0-------0-------------|
D|---2-------2------2-------2---------------|
A|-3-----3--------3-----3-------------------|
E|------------------------------------------|

Parte 2 de 4
E|-0-------0-----3---5----------------------|
B|-----------------1------------------------|
G|-----0-------0-------0--------------------|
D|---2-------2------------------------------|
A|-3-----3-------3---3----------------------|
E|------------------------------------------|

Parte 3 de 4
   G
E|---------------0-------0-------------------|
B|-3-------3---------------------------------|
G|-----0-------0-----0-------0---------------|
D|---0-------0-----0-------0-----------------|
A|-------------------------------------------|
E|-3-----3-------3-----3---------------------|

Parte 4 de 4
E|-------------------------------------------|
B|-3-------3-----0---3-----------------------|
G|-----0-------0--------0--------------------|
D|---0-------0-----0-------------------------|
A|-------------------------------------------|
E|-3-----3-------3---3-----------------------|

[Primeira Parte]

 C                                          G
Yes, I understand that every life must end, uh-huh
C                                           G
As we sit alone, I know someday we must go, uh-huh
   C                                                G
Oh I'm a lucky man, to count on both hands the ones I love
 C                                               G
Some folks just have one, yeah, others, they've got none, uh-huh

[Pré-Refrão]

[Tab - Dedilhado Pré-Refrão]

Parte 1 de 3
   Am
E|-0-------0-----3-------3------------------|
B|-----1-------1-----1-------1--------------|
G|---2-------2-----2-------2----------------| (2x)
D|------------------------------------------|
A|-0-----0-------0-----0--------------------|
E|------------------------------------------|

Parte 2 de 3
   F
E|-1-------1-----3-------3------------------|
B|-----1-------1-----1-------1--------------|
G|---2-------2-----2-------2----------------|
D|-3-----3-------3-----3--------------------|
A|------------------------------------------|
E|------------------------------------------|

Parte 3 de 3
   F
E|-1-------1-----1---0----------------------|
B|-----1-------1---1------------------------|
G|---2-------2---------2--------------------|
D|-3-----3-------3---3----------------------|
A|------------------------------------------|
E|------------------------------------------|

Am
   Stay with me
F
  Let's just breathe

( C  G )

[Segunda Parte]

[Tab - Dedilhado]
  
  C                                            G
Practiced all my sins, never gonna let me win, uh-huh
C                                           G
Under everything, just another human being, uh-huh
C                                                     G
I don't wanna hurt, there's so much in this world to make me bleed

[Pré-Refrão 1]

[Tab - Dedilhado Pré-Refrão]

Am
   Stay with me
F
  You're all I see

[Refrão] 

[Tab - Dedilhado Refrão]

Parte 1 de 2
   G                                  
E|-3-------3-----3-------3------------------|
B|-----0-------0-----0-------0--------------|
G|---0-------0-----0-------0----------------|
D|------------------------------------------|
A|------------------------------------------|
E|-3-----3-------3-----3--------------------|

Parte 2 de 2
   Dm
E|-1-------1-----1-------1------------------|
B|-----3-------3-----3-------3--------------|
G|---2-------2-----2-------2----------------|
D|-0-----0-------0-----0--------------------|
A|------------------------------------------|
E|------------------------------------------|

Parte 1 de 2
   G                                  
E|-3-------3-----3-------3------------------|
B|-----0-------0-----0-------0--------------|
G|---0-------0-----0-------0----------------|
D|------------------------------------------|
A|------------------------------------------|
E|-3-----3-------3-----3--------------------|

Parte 2 de 2
   Dm
E|-1-------1-----1-------1------------------|
B|-----3-------3-----3-------3--------------|
G|---2-------2-----2-------2----------------|
D|-0-----0-------0-----0--------------------|
A|------------------------------------------|
E|------------------------------------------|

Parte 3 de 7
   F                                    
E|-1-------1-----1-------1------------------|
B|-----1-------1-----1-------1--------------|
G|---2-------2-----2-------2----------------|
D|-3-----3-------3-----3--------------------|
A|------------------------------------------|
E|------------------------------------------|

Parte 4 de 7
   Am
E|-0-------0-----0-------0------------------|
B|-----1-------1-----1-------1--------------|
G|---2-------2-----2-------2----------------|
D|------------------------------------------|
A|-0-----0-------0-----0--------------------|
E|------------------------------------------|

Parte 5 de 7
     Dm          Dm/C
E|-1-------1-----1-------1------------------|
B|-----3-------3-----3-------3--------------|
G|---2-------2-----2-------2----------------|
D|-0-----0----------------------------------|
A|---------------3-----3--------------------|
E|------------------------------------------|

Parte 6 de 7
   G7/B
E|-1-------1-----1-------1------------------|
B|-----3-------3-----3-------3--------------|
G|---0-------0-----0-------0----------------|
D|------------------------------------------|
A|-2-----2-------2-----2--------------------|
E|------------------------------------------|

Parte 7 de 7
     G
E|-----0---1---0----------------------------|
B|-3----------------------------------------|
G|---0---0---0---0--------------------------|
D|------------------------------------------|
A|------------------------------------------|
E|-3---3---3---3----------------------------|

G                   Dm
  Did I say that I need you?
G                   Dm
  Did I say that I want you?
F                      Am
Oh, if I didn't I'm a fool you see
 Dm            Dm/C      G7/B
No one knows this more than me
G
As I come clean

[Terceira Parte]

[Tab - Dedilhado]

   C                                         G
I wonder everyday, as I look upon your face, uh-huh
  C                                             G
Everything you gave and nothing you would save, oh no

[Pré-Refrão 2]

[Tab - Dedilhado Pré-Refrão]

 Am
Nothing you would take
    F
Everything you gave

[Refrão]

[Tab - Dedilhado Refrão]

G                   Dm
  Did I say that I need you?
G                       Dm
  Oh, did I say that I want you?
F                      Am
Oh, if I didn't I'm a fool you see
 Dm            Dm/C      G/B
No one knows this more than me
G
And I come clean

[Final]

 Am
Nothing you would take
    F
Everything you gave
 Am
Hold me 'till I die
         F
Meet you on the other side
00:00 / 00:00
Otros videos de esta canción
Repetir
Otros videos de esta canción
Composición de Eddie Vedder
32.553 exhibiciones
  • Simplificar cifrado
    • ½ Tono
    • A
    • Bb
    • B
    • C
    • Db
    • D
    • Eb
    • E
    • F
    • F#
    • G
    • Ab
  • Agregar a la lista
    00:00 / 00:00
    OK