Enviar cifraEntrar

Just Breathe

Pearl Jam

Acordes: Principal
reproducciones 10.086
Tono: C

Intro 2x: C  G
E|--0---------0-----|--3--------3-------|--0--------0-----|--3--5--------------|
B|------1--------1--|------1---------1--|------1------1---|--------3-------3---|
G|----0-------------|----0--------------|----0------------|------------0-----0-|
D|------------------|-------------------|-----------------|----------0---------|
A|--3------3--------|--3------3---------|--3------3-------|--3-----------------|
E|------------------|-------------------|-----------------|--------3-----3-----|


E|--0---------0-----|--3--------3-------|--0--------0-----|--3--5--------------|
B|------1--------1--|------1---------1--|------1------1---|--------3-------3---|
G|----0-------------|----0--------------|----0------------|------------0-----0-|
D|------------------|-------------------|-----------------|----------0---------|
A|--3------3--------|--3------3---------|--3------3-------|--3-----------------|
E|------------------|-------------------|-----------------|--------3-----3-----|


Verso:

E|--0---------0-----|--3--------3-------|--0--------0-----|--3--5--------------|
B|------1--------1--|------1---------1--|------1------1---|--------3-------3---|
G|----0-------------|----0--------------|----0------------|------------0-----0-|
D|------------------|-------------------|-----------------|----------0---------|
A|--3------3--------|--3------3---------|--3------3-------|--3-----------------|
E|------------------|-------------------|-----------------|--------3-----3-----|


E|--0---------0-----|--3--------3-------|--0--------0-----|--3--5--------------|
B|------1--------1--|------1---------1--|------1------1---|--------3-------3---|
G|----0-------------|----0--------------|----0------------|------------0-----0-|
D|------------------|-------------------|-----------------|----------0---------|
A|--3------3--------|--3------3---------|--3------3-------|--3-----------------|
E|------------------|-------------------|-----------------|--------3-----3-----|


Stay with me...

E|------------------|--3--------3-------|--0-------0------|--3--------3----|
B|--1--------1------|-------------------|-----------------|----------------|
G|------2---------2-|------2----------2-|------2-------2--|------2-------2-|
D|----2---------2---|----2---------2----|----2-------2----|----2-------2---|
A|--0------0--------|--0------0---------|--0------0-------|--0------0------|
E|------------------|-------------------|-----------------|----------------|


E|-1--------1------|--3--------3------|--1--------1------|--1-------1---0----|
B|------1--------1-|-------1--------1-|-------1--------1-|-------1-----------|
G|----2-------2----|-----2-------2----|-----2-------2----|-----2----------2--|
D|-3------3--------|--3------3--------|--3------3--------|--3---------3------|
A|-----------------|------------------|------------------|-------------------|
E|-----------------|------------------|------------------|-------------------|


Did I say...

E|--3---------3-----|--3---------3-----|--1---------1-----|--1-------1-----|
B|-------0--------0-|-------0--------0-|-------3--------3-|-------3------3-|
G|-----0--------0---|-----0--------0---|-----2--------2---|-----2------2---|
D|------------------|------------------|--0-------0-------|--0------0------|
A|------------------|------------------|------------------|----------------|
E|--3-------3-------|--3-------3-------|------------------|----------------|


Did I say...

E|--3---------3-----|--3---------3-----|--1---------1-----|--1-------1-----|
B|-------0--------0-|-------0--------0-|-------3--------3-|-------3------3-|
G|-----0--------0---|-----0--------0---|-----2--------2---|-----2------2---|
D|------------------|------------------|--0-------0-------|--0------0------|
A|------------------|------------------|------------------|----------------|
E|--3-------3-------|--3-------3-------|------------------|----------------|


Oh if I didn't...

E|--1--------1------|--1--------1------|--0--------0------|--0-------0-----|
B|-------1--------1-|-------1--------1-|-------1--------1-|-------1------1-|
G|-----2-------2----|-----2-------2----|-----2-------2----|-----2------2---|
D|--3------3--------|--3------3--------|--0------0--------|--0------0------|
A|------------------|------------------|------------------|----------------|
E|------------------|------------------|------------------|----------------|


Noone knows this more...

E|--1--------1------|--1--------1------|--1---------1-----|--1---------1----|
B|-------3--------3-|-------3--------3-|-------3--------3-|------3--------3-|
G|-----2-------2----|-----2-------2----|-----0--------0---|----0--------0---|
D|--0------0--------|--0------0--------|------------------|-----------------|
A|------------------|------------------|--2-------2-------|--2------2-------|
E|------------------|------------------|------------------|-----------------|


As I come clean...

E|----------0-------|--1------0-------|
B|--3---------------|-----------------|
G|------0-------0---|------0------0---|
D|------------------|-----------------|
A|------------------|-----------------|
E|--3-------3-------|--3------3-------|


Outro:

E|------------------|--3--------3-------|--0-------0------|--3--------3----|
B|--1--------1------|-------------------|-----------------|----------------|
G|------2---------2-|------2----------2-|------2-------2--|------2-------2-|
D|----2---------2---|----2---------2----|----2-------2----|----2-------2---|
A|--0------0--------|--0------0---------|--0------0-------|--0------0------|
E|------------------|-------------------|-----------------|----------------|


E|-1--------1------|--3--------3------||--1--------1------|--3--------3------|
B|------1--------1-|-------1--------1-||-------1--------1-|-------1--------1-|
G|----2-------2----|-----2-------2----||-----2-------2----|-----2-------2----|
D|-3------3--------|--3------3--------||--3------3--------|--3------3--------|
A|-----------------|------------------||------------------|------------------|
E|-----------------|------------------||------------------|------------------|


E|------------------|--3--------3-------|--0-------0------|--3--------3----|
B|--1--------1------|-------------------|-----------------|----------------|
G|------2---------2-|------2----------2-|------2-------2--|------2-------2-|
D|----2---------2---|----2---------2----|----2-------2----|----2-------2---|
A|--0------0--------|--0------0---------|--0------0-------|--0------0------|
E|------------------|-------------------|-----------------|----------------|


E|--1--------1------|--3--------3------||--1--------1------|--0------------|
B|-------1--------1-|-------1--------1-||-------1--------1-|--1------------|
G|-----2-------2----|-----2-------2----||-----2-------2----|--2------------|
D|--3------3--------|--3------3--------||--3------3--------|--3------------|
A|------------------|------------------||------------------|---------------|
E|------------------|------------------||------------------|---------------|



C                                         G
Yes, I understand that every life must end, uh-huh
C                                         G
As we sit alone, I know someday we must go, uh-huh
C                                         G
Oh I'm a lucky man, to count on both hands the ones I love
C                                         G
Some folks just have one, yeah, others, they've got none, uh-huh

Am
Stay with me...
F
Let's just breathe...

C                G
             yuh-huuh
C                                          G
Practiced all my sins, never gonna let me win, uh-huh
C                                          G
Under everything, just another human being, uh-huh
C                                          G
I don't wanna hurt, there's so much in this world to make me bleed

Am
Stay with me
F
You're all I see...

G              Dm
Did I say that I need you?
G              Dm
Did I say that I want you?
F                     Am
Oh, if I didn't I'm a fool you see
Dm           Dm/C           G/B
No one knows this more than me
G
As I come clean...

C                                           G
I wonder everyday, as I look upon your face, uh-huh
C                                           G
Everything you gave and nothing you would save, oh no

Am
Nothing you would take
F
everything you gave...

G               Dm
Did I say that I need you?
G               Dm
Oh, did I say that I want you?
F                     Am
Oh, if I didn't I'm a fool you see
Dm           Dm/C           G/B
No one knows this more than me
G
And I come clean

 C         G
ah...      hmmm
C         G
hmmm      hmmm

Am
Nothing you would take,
F
everything you gave
Am
Hold me 'till I die
F
Meet you on the other side...
  • 1
  • 2
  • 3
  • 4
  • 5
  • 6
  • 7
  • 8
  • 9
  • 10
  • 11
  • 12
    Acordes para:
      Composición: Eddie VedderColaboración y revision:

      0 comentarios

        mostrar mas comentarios

        ¿Conseguiste tocar?

        21tocaron2aún no

        ¡Grave un vídeo tocando Just Breathe y envie para nosotros!

        00:00 / 00:00
        outros vídeos desta música
        repetirqualidadeautomática
        • automática
        Outro vídeos desta música
          00:00 / 00:00
          automática
          • automática
          1 versión de Guitar Proformatodownloadscontribución
          cerrarplay/pause subir/bajar velocidad
            acordes
            cerrar
            OK
            Feedback