Cifra Club

Yellow Ledbetter

Pearl Jam

Tab de bajo: Principal
Jeff Ament usa um baixo fretless nessa música, mas é possível alcançar
a sonoridade com um baixo comum.

Versos
G|-------------------------------------------------|
D|----------------------------7-------------14--\--|
A|7--------7\--2-------2/--0-----------------------| 
E|-------------------------------------0-----------|

Refrão                                                                                                                                                                          G|---------------------------------------------------------------|
D|----------------------7~---------------------------------------|
A|-------2---2/-----------------------2---2/---------------------|
E|-0-0-0---------5-5-5----------0-0-0---------5-5-5-4-4-4-4-2-2/-|

Solo – Versos
Variação Final                 
G|----------------------------------------------------|
D|----------------------------------------------7~----|
A|6----7----\-2--------2/-6----7--------0-------------|
E|----------------------------------------------------|

G|----------------------------------------------------|
D|----------------------------------------------------|
A|6----7----\-2--------2/-6----7--------0~------------|
E|---------------------------------------------0~-----|





_______________________________________________________
Contribuição: Carlos Batista da Silva de Sousa(carlosbssousa@hotmail.com)
Composição de Eddie Vedder / Jeff Ament / Mike McCready
267 reproducciones

0 comentarios

Ver todos os comentários
00:00 / 00:00
outros vídeos desta música
repetir qualidade Automático
Outros vídeos desta música
00:00 / 00:00
Automático
OK