Cifra Club

Historia de un amor

Pedro Infante

Cifrado: Principal (guitarra y guitarra eléctrica)
tono: Em
E|-------------------------------------------------------|
B|-8-7---7-8---8/10-10-8-7-7-----7-5---5-7--8-8-7--------|
G|-----9-----9---------------9-8-----8-----8------9------|
D|--------------------------------------------------9-7-5|
A|-------------------------------------------------------|
E|-------------------------------------------------------|


A  PARTE DE LOS VIOLINES

E|-------------------------------------------------------|
B|---3-4-4-4-3-4/6-3---1-2-2-2-1-2/4-0----0-1^0-4-3------|
G|-5-----------------3------------------2-----------5----|
D|-------------------------------------------------------|
A|-------------------------------------------------------|
E|-------------------------------------------------------|



Em

                     Am           B7
Ya no estás más a mi lado corazón
                 Em
en el alma sólo tengo soledad
                  D
y si ya no puedo verte
                         C
porque Dios lo hizo quererte
                 B7       Em
para hacerme sufrir más.


                     Am               B7
Siempre fuiste la razón de mi existir
               Em
adorarte para mí fue religión
                      D
en tus besos yo encontraba
                     C
el calor que me brindaba
     B7          Em
el amor de tu pasión.


                       Am
Es la historia de un amor
                   B7
como no hay otro igual
                   Em
que me hizo comprender

todo el bien todo el mal
                     D
que le dio luz a mi vida
                C
apagándola después
                      B7
ay..que noche tan obscura

E|-3-2-------------|
B|-----5-3-2-------|


C                     B7
 todo se me ha de volver.

E|---10-8-7-5-----9~| ----
B|------------7-5--------|

Em

                     Am           B7
Ya no estás más a mi lado corazón
                 Em
en el alma sólo tengo soledad
                  D
y si ya no puedo verte
                         C
porque Dios lo hizo quererte
                 B7                Em
para hacerme sufrir más.


E|-------------------------------------------------------|
B|-8-7---7-8---8/10-10-8-7-7-----7-5---5-7--8-8-7--------|
G|-----9-----9---------------9-8-----8-----8------9------|
D|--------------------------------------------------9-7-5|
A|-------------------------------------------------------|
E|-------------------------------------------------------|

E|-------------------------------------------------------|
B|---3-4-4-4-3-4/6-3---1-2-2-2-1-2/4-0----0-1^0-4-3------|
G|-5-----------------3------------------2-----------5----|
D|-------------------------------------------------------|
A|-------------------------------------------------------|
E|-------------------------------------------------------|

                    Am
Es la historia de un amor
                   B7
como no hay otro igual
                   Em
que me hizo comprender

todo el bien todo el mal
                     D
que le dio luz a mi vida
                C
apagándola después
                      B7
ay..que noche tan obscura

E|-3-2-------------|
B|-----5-3-2-------|


C                     B7
 todo se me ha de volver.

E|---10-8-7-5-----9~| ----
B|------------7-5--------|

Em

                     Am           B7
Ya no estás más a mi lado corazón
                 Em
en el alma sólo tengo soledad
                  D
y si ya no puedo verte
                         C
porque Dios lo hizo quererte
                 B7                Em
para hacerme sufrir más.
00:00 / 00:00
Otros videos de esta canción
Repetir
Otros videos de esta canción
Composición de Carlos Eleta Almarán
387 vistas
    • ½ Tono
    • Am
    • Bbm
    • Bm
    • Cm
    • C#m
    • Dm
    • Ebm
    • Em
    • Fm
    • F#m
    • Gm
    • G#m
  • Agregar a la lista

    0 comentarios

    Ver todos los comentarios

    ¿Lograste tocar?

    1 Tocaron 0 Aún no

    ¡Graba un video tocando Historia de un amor y envíanoslo!

    00:00 / 00:00
    OK