Cifra Club

Que te ha dado esa mujer

Pedro Infante

Cifrado: Principal (guitarra y guitarra eléctrica)
Selo Cifra Club: esta cifra foi revisada para atender aos critérios oficiais da nossa Equipe de Qualidade.
tono: A

  A                                         G            E7
E|----------------------|---------------------------------------------|--|
B|-2--0--2--0--2--3--5--|--5--7--7--5--7--10--9--7--5--3--10--9--3--3-|--|
G|-2--1--2--1--2--4--6--|--6--7--7--6--7--11--9--7--6--4--11--9--4--4-|--|
D|----------------------|---------------------------------------------|--|
A|----------------------|---------------------------------------------|--|
E|----------------------|---------------------------------------------|--|

                                        A
E|-------------------------------------------------------------------|--|
B|--3--3----3--12--12--10--9--9--12--10--9--5--9--7--5--2------------|--|
G|--4--4----4--13--13--11--9--9--13--11--9--6--9--7--6--2------------|--|
D|-------------------------------------------------------------------|--|
A|-------------------------------------------------------------------|--|
E|-------------------------------------------------------------------|--|

  A                                         G            E7
E|----------------------|---------------------------------------------|--|
B|-2--0--2--0--2--3--5--|--5--7--7--5--7--10--9--7--5--3--10--9--3--3-|--|
G|-2--1--2--1--2--4--6--|--6--7--7--6--7--11--9--7--6--4--11--9--4--4-|--|
D|----------------------|---------------------------------------------|--|
A|----------------------|---------------------------------------------|--|
E|----------------------|---------------------------------------------|--|

                                        A
E|-------------------------------------------------------------------|--|
B|--3--3----3--12--12--10--9--9--12--10--9--5--7--10-----------------|--|
G|--4--4----4--13--13--11--9--9--13--11--9--6--7--11-----------------|--|
D|-------------------------------------------------------------------|--|
A|-------------------------------------------------------------------|--|
E|-------------------------------------------------------------------|--|

                  A
Que te ha dado esa mujer
                 E7
que te tiene tan engreido

querido amigo, querido amigo
                   A
yo no se lo que me ha dado


Cada que la veo venir
                  E7
se agacha y se va de lado

querido amigo, querido amigo
                A
este amor no puede ser

        E7
Si el proposito me hiciera
      A
de dejarla
       E7
mi destino es comprenderla
        A
y no olvidarla


cada que la veo venir
                  E7
se agacha y se va de lado

querido amigo, querido amigo
               A
valia mas mejor morir


       E7
Hace cuatro o cinco dias
         A
que no la miro
         E7
que no la miro sentadita
        A
en su ventana


Si no la miraste hoy
              E7
ahi la miraras mañana

querido amigo, querido amigo
               A
valia mas mejor morir
Otros videos de esta canción
    797 exhibiciones
      • ½ Tono
      • A
      • Bb
      • B
      • C
      • Db
      • D
      • Eb
      • E
      • F
      • F#
      • G
      • Ab
    • Agregar a la lista

    Afinación de cifrado

    Afinador online

      OK