Cifra Club

Cuando Pienses en Volver

Pedro Suarez Vertiz

Cifrado: Principal (guitarra y guitarra eléctrica)
tono: A
[Intro]
 
 F#m 
E|---------------------------------------------------------|
B|---------------------------------------------------------|
G|---------------------------------------------------------|
D|-4------2-4------2---2-----------------------------------|
A|------4--------4---4---4---------------------------------|
E|---------------------------------------------------------|
 
F#m  E  A  D  E 
 
E|--------7------9------10-9----7-----12-7-----------------|
|10-7-10---9----- 10-7------  10---9---------(9)-----------| 
G|-------------9--------------------9----------------------|
D|---------------------------------------------------------|
A|---------------------------------------------------------|
E|---------------------------------------------------------|
 
F#m  E  A  D  E 
E|--------7------9------10-9----7-----12-7---7-----12-7----|
B|-10-7-10---9------10-7------10---9--------9---9--------9-|
G|-------------9--------------------9------------9---------|
D|---------------------------------------------------------|
A|---------------------------------------------------------|
E|---------------------------------------------------------|
 
[Refrão]
 
A              D       A 
Cuando pienses en volver 
F#m            D            Bm          E 
Aquí estan tus amigos tu lugar y tu mujer 
      F#m  E  A     D                      F#m 
Y te abrazarán dirán que el tiempo no pasó 
  E             A 
Y te amarán con todo el corazón  
 
[Primeira Parte]

D                             C#m 
Trabajas hasta muy tarde y no puedes descansar 
D                            A         E 
Las palabras de tu mádre empiesan a sonar 
D                               C#m 
Cuando tu te estes muriendo por un poco de amor 
D                        A        E 
Hijito sigue adelante domina el corazón 
 
F#m      E          A         D      E  E 
Debes sacar los tormentos de tu corazón 
F#m        E          A           D            E 
Pues el dolor no es eterno y pronto saldra el sol 
E 
Saldra el sol 
 
[Segunda Parte]

D                               C#m 
Puede ser que en tu tierra no habia donde ir 
D                                A    E 
Puede ser que tus sueños no tenian lugar 
D                            C#m 
Pero solo en tu cuarto tu tendrás que admitir 
D                             A         E 
Que podía haber pobreza pero nunca soledad 
 
 
F#m        E          A         D      E  E 
Quieres sacar los tormentos de tu corazón 
F#m        E          A           D            E 
Pues el dolor no es eterno y pronto saldra el sol 
E 
Saldra el sol 
 
( A  D  C#m  A )
 
E|------------------7-9-7----------------------------------|
B|---7-9-5------7-9-------10-9-----------------------------|
G|-7-------6--7--------------------------------------------|
D|---------------------------------------------------------|
A|---------------------------------------------------------|
E|---------------------------------------------------------|
 
E|-------------------7-9-7---------------------------------|
B|-7-10-9-5------7-9--------10-9---------------------------|
G|----------6--7-------------------------------------------|
D|---------------------------------------------------------|
A|---------------------------------------------------------|
E|---------------------------------------------------------|
 
F#m     E            A        D         E   E 
Quieres sacar los tormentos de tu corazón 
F#m      E         A            D           E 
Pues el dolor no es eterno y pronto saldra el sol 
E 
Saldra el sol 

[Refrão]
 
A               D    A 
Cuando ya no estes acá 
F#m                D           Cm             E 
Trabaja hasta las lágrimas como lo hacias allá 
     F#m  E  A      D                A 
Solo asi veras que tu pais no fracaso 
E                            A 
Si no que tanto amor te relajó 
      F#m  E  A     D                      A 
Y te abrazarán dirán que el tiempo no pasó 
E                            A 
Y te amarán con todo el corazón 
 
[Final] F#m
Composición de Pedro Suarez Vertiz
Colaboración y revisión:
  • Kane Mejico
  • Ivan Pozo
4.723 vistas
    • ½ Tono
    • A
    • Bb
    • B
    • C
    • Db
    • D
    • Eb
    • E
    • F
    • F#
    • G
    • Ab
  • Agregar a la lista

    0 comentarios

    Ver todos los comentarios

    ¿Lograste tocar?

    3 Tocaron 0 Aún no

    ¡Graba un video tocando Cuando Pienses en Volver y envíanoslo!

    00:00 / 00:00
    Outros vídeos desta música
    Repetir Calidad Automático
    Outros vídeos desta música
    00:00 / 00:00
    Automático
    OK