Cifra Club

No Llores Más

Pedro Suarez Vertiz

Cifrado: Principal (guitarra y guitarra eléctrica)
tono: G
Intro: G  Em  C  D
       Em  G  D
E|-7-7-7-9-10-9-7-----7-----------------------5-------------------------
B|----------------8-8---10-8-8--8-8-6-8-6-8-8---------------------------
G|----------------------------------------------------------------------
D|----------------------------------------------------------------------
A|----------------------------------------------------------------------
E|----------------------------------------------------------------------

E|---------------------------------------9------------------------------
B|-9-11-12-11-9-11----10-10-8-10-8-10-11--------------------------------
G|----------------------------------------------------------------------
D|----------------------------------------------------------------------
A|----------------------------------------------------------------------
E|----------------------------------------------------------------------

E|---10-12-10-----------------------------------------------------------
B|------------13-13-11--12-10----10--12--8------------------------------
G|----------------------------12----------------------------------------
D|----------------------------------------------------------------------
A|----------------------------------------------------------------------
E|----------------------------------------------------------------------

E|--------------3--3~---------------------------------------------------
B|----------3-5---------------------------------------------------------
G|------3h5-------------------------------------------------------------
D|--3-5-----------------------------------------------------------------
A|----------------------------------------------------------------------
E|----------------------------------------------------------------------

G                   Em
Cuando recuerdes mi piel
C                       Am
cuando recuerdes mis ojos
 D                   Bm
cuando te atrape el enojo
                Am
al ver que de apocos
                G
no me tienes alla
G                Em
nunca vayas a pensar
C                 Am
que yo deseo olvidarte
D                     Bm
pero aunque de mi te apartes
              Am
las cosas mi vida
              G
no van a canbiar.

Refrão:
 G         Em
No llores mas no, no, no
C          Am
no llores mas ( no llores mas amor )
D         Bm
no llores mas
                 Am
que asi me arrinconas
             G
en la oscuridad.

si alguien me vio con amigas
en uno que otro lugar
sabras que nunca en mi vida
yo te fallaria frente a los demas
tu nunca lo entenderias
no te lo puedo explicar
pues hay cosas en la vida
que no se castigabn si sabes callar.(repetir coro)
Solo:
E|---5/7-3---3---3---3---3--9/11p9-7-8-9-10--5h7p5----------------------
B|---------5---5---5---5---------------------------7--10h12p10----------
G|----------------------------------------------------------------------
D|----------------------------------------------------------------------
A|----------------------------------------------------------------------
E|----------------------------------------------------------------------

e|-14/15p12----12-12\8-------------------------------------------------
B|----------15---------10/12p10------8---------------------------------
G|------------------------------12-9---9-12-12-9-----------------------
D| -----------------------------------------------12-9----9-12-9\7-----
A|----------------------------------------------------12----------8/10-
E|---------------------------------------------------------------------

  Dm                Am
Quiero sentir mi verdad
                   G
quiero tener el valor
                      Dm
pero nunca jugaria contigo
       Am
me inquietan las chicas
       G        D
es todo, amor el alma esta
   Em  C                  Am
difinida ella tan solo va amar
D                 Bm
pero mi cuerpo respira
                D                    G
buscando un contacto en mi soledad hmm.

 1)el alma esta difinida
   ella tan solo va a amar
   hmm no llores mas amor
   que asi me arrinconas
   en la oscuridad.
   cuando recuerdes mi piel
   cuando recuerde mis ojos
   cuando te atrape el enojo
   que asi me arrinconas
   en la oscuridad
   tu nunca lo entenderias
   no te lo puedo explicar
   pues hay cosa en la vida
   que asi me arrinconas
   en la oscuridad....
Composición de Pedro Suarez
Colaboración y revisión:
  • ronny ruben
1.275 vistas
    • ½ Tono
    • A
    • Bb
    • B
    • C
    • Db
    • D
    • Eb
    • E
    • F
    • F#
    • G
    • Ab
  • Agregar a la lista

    0 comentarios

    Ver todos los comentarios

    ¿Lograste tocar?

    0 Tocaron 0 Aún no

    ¡Graba un video tocando No Llores Más y envíanoslo!

    00:00 / 00:00
    Outros vídeos desta música
    Repetir Calidad Automático
    Outros vídeos desta música
    00:00 / 00:00
    Automático
    OK