Cifra Club

No Pense Que Era Amor

Pedro Suarez Vertiz

Cifrado: Principal (guitarra y guitarra eléctrica)
tono: D
Intro:
E|--------10-------|
B|----------12-10--|
G|-----7-----------|
D|-7-9-------------|
A|-----------------|
E|-----------------|

   D  F#  Bm  D7  G  A  F#m  Bm  B7  Em  A  G  D
E|-------------------------------------7-9-10-9-7-5-7-7-7-7.-7-7-7.-5----
B|---5-7-7-7-7.-7-7-7-8-7-7-7.-7-7-7-7--------------------------------8.-
G|-----------------------------------------------------------------------
D|-----------------------------------------------------------------------
A|-----------------------------------------------------------------------
E|-----------------------------------------------------------------------

E|-9-10-9-7----------7-----------5-7-5---------------------|
B|----------10.-7-10---7.-7-7-8.-------5.-5-5---5----------|
G|--------------------------------------------7---7-8-7..--|
D|---------------------------------------------------------|
A|---------------------------------------------------------|
E|---------------------------------------------------------|

           D                     F#
No pensé que era amor y lo dejaba correr
         Bm                    D7                G
Iba atando mis manos me alejo del ayer y del mar
    A                      F#m              Bm    B7
Que antes miraba estando solo, hoy vale nada sin ti
       Em        A             G        D
Lo sé queda poco y ya te tienes que ir

       G         A             F#m           Bm  B7
Mi alma llorará mi amor llorará y caerá en un pozo
         Em               A            D
Pues te vas y quedo muy solo cuantos segundos más
           D7           G           A
Te podré mirar y es verdad que al hablar
              F#m         Bm  B7        Em
De amor al hablar me destrozo, pues te vas
                 A             G     D
Y quedo tan solo que prefiero morir.
            D                 F#
Sin pensar en mañana sollozando de pie
           Bm                  D7               G     (Riff 1)
Ya no tengo palabras no te volveré a ver jamás
     A                     F#m          Bm
Y esto me está arrancando todo me está matando
     B7        Em            A          G          D
Yo lo sé, está bien dentro de poco no te volveré a ver

Solo: G  A  F#m  Bm  B7  Em  A  G  D
E|------------------------------------------------------
B|--------------------------------10-----------10-------
G|-10/11-10/11-10/11-11-9----9.-9----11-9----9----11-9--
D|------------------------12--------------12------------
A|------------------------------------------------------
E|------------------------------------------------------

E|-----------------10-14-10------------------------------
B|-------10.-10-12----------12.-10----12.-10-------------
G|-10/11---------------------------11--------11-9-7------
D|--------------------------------------------------9-7--
A|-------------------------------------------------------
E|-------------------------------------------------------

E|-----------------------------------------10-14-10---10--
B|--------------------10-------------10-12----------12----
G|-11-11-11-11-9----9----11-9--10/11----------------------
D|---------------12---------------------------------------
A|--------------------------------------------------------
E|--------------------------------------------------------

E|----------------------------------------------------------------|
B|-12-10-----------------------------------------------10---------|
G|------12-10-9----------11-11-11-11-11-9----9----9/11----11------|
D|--------------11-9----------------------12---12------------12.--|
A|-------------------12-------------------------------------------|
E|----------------------------------------------------------------|

           D                      F#
Yo pensé que era dueño de lo que podía ser
          Bm                   D7              G
Ya no toques mi piel si no vas a volver jamás
    A                     F#m         Bm  B7
Por que se inundan mis ojos al hablar de ti
      Em         A                  G      D
No lo sé, estaré loco o es que me quiero morir
       G         A                  G      D
No lo sé, estaré loco o es que me quiero morir.
Fim:
E|-10-------------------|
B|----12----10/12-10..--|
G|-------11-------------|
D|----------------------|
A|----------------------|
E|----------------------|

Riff 1:
E|-10-------------|
B|----10/12-10..--|
G|----------------|
D|----------------|
A|----------------|
E|----------------|
Composición de Pedro Suarez
Colaboración y revisión:
  • ronny ruben
9.824 vistas
    • ½ Tono
    • A
    • Bb
    • B
    • C
    • Db
    • D
    • Eb
    • E
    • F
    • F#
    • G
    • Ab
  • Agregar a la lista

    0 comentarios

    Ver todos los comentarios

    ¿Lograste tocar?

    1 Tocaron 0 Aún no

    ¡Graba un video tocando No Pense Que Era Amor y envíanoslo!

    00:00 / 00:00
    Outros vídeos desta música
    Repetir Calidad Automático
    Outros vídeos desta música
    00:00 / 00:00
    Automático
    OK