Cifra Club

Se Que Todo Ha Acabado Ya

Pedro Suarez Vertiz

Cifrado: Principal (guitarra y guitarra eléctrica)
tono: A
Intro 
e|----------------------------------------0-------------------5----------------| 
B|-----------------------------------------------------------------------------| 
G|-------------------2---------------------------------------------------------| 
D|--------2-----5-4------------2-----5-4------------2-----5-4------------2-4-2-| 
A|-0-2-4-----4----------0-2-4-----4----------0-2-4-----4----------0-2-4--------| 
E|-----------------------------------------------------------------------------| 
 
 
A        E           F#m 
 se que todo ha acabado ya 
D        A          E 
 como duele el corazon  
A        E       F#m 
 ya no queda oportunidad 
D          A          E 
 un gran libro se cerro 
A       E         F#m  
 nadie ve lo que va a pasar 
D        A          E 
 somos ciegos al nacer 
A         E           F#m       
 y ahora ves nada estuvo mal 
D         A           E 
 nos culpamos sin querer 
 
Coro: 
B                   G#m 
 si estoy bien o si estoy mal 
                    C#m 
 al universo le da igual  
                  F# 
 todo sigue alrededor 
B                  G#m  
 el amor no es divinidad 
                  C#m 
 es un ciclo  natural 
                      F# 
 que destroza al corazon 
 
D|-------------| 
A|----------0--| 
E|-0--2--4-----| 
                       
A      E               F#m   
 esta bien lo voy a aceptar  
D          A            E 
 dios no inventes el final 
 
A   E   F#m 
D   A   E    
A   E   F#m 
D   A   E    
 
Coro 
 
A      E      F#m 
 por favor no pasiemos mas 
D        A             E 
 es muy tarde y ya me voy 
A       E            F#m 
 por favor ya no hablemos mas 
D       A            E 
 se desluce una ilusion 
A         E      F#m 
 da da da da da da  
D      A         E 
 da da da da da da ... 
A         E      F#m 
 da da da da da da  
D      A         E 
 da da da da da da ... 
A
Composición de pedro suarez vertiz
3.424 vistas
    • ½ Tono
    • A
    • Bb
    • B
    • C
    • Db
    • D
    • Eb
    • E
    • F
    • F#
    • G
    • Ab
  • Agregar a la lista

    0 comentarios

    Ver todos los comentarios

    ¿Lograste tocar?

    1 Tocaron 0 Aún no

    ¡Graba un video tocando Se Que Todo Ha Acabado Ya y envíanoslo!

    00:00 / 00:00
    Outros vídeos desta música
    Repetir Calidad Automático
    Outros vídeos desta música
    00:00 / 00:00
    Automático
    OK