Cifra Club

Y Es Que Sucede Así (acústico)

Pedro Suarez Vertiz

Cifrado: Principal (guitarra y guitarra eléctrica)
tono: C
      G
Después de tiempo
     Bm
Me la encontré otra vez
      F
Estaba bella
      Am
Como las estrellas
  G                        Bm
Había desarrollado más de lo que pensé
   F     Am           C
Hola que tal como te va
                 Am               Em   D
Qué lindo cuerpo tienes vamos a pasear Oh oh
C          Am                Em     D
Estaba fascinado al verla caminar Oh oh

Coro: G  Dm  Am  F (2x)

Riff:

E|--------------------------------------------------------|
B|--------------------------------------------------------|
G|---2-4-2-2-2---4-5-5-5-4-2-----2-4-2-2-2---4-5-5-5-4-2--|
D|5-5---------5-5-----------5-5-5---------5-5-----------5-|
A|-------------7---------------------------7--------------|
E|--------------------------------------------------------|

 G                  Bm
Se removieron mis recuerdos de niñez
 F                 Am
Cuando en la acera linda estaba ella
 G                         Bm
Jugando a las muñecas les daba de comer
 F    Am           C
Hola dije quieres jugar
               Am               Em     D
Soy el mejor doctor de toda la ciudad Oh oh
    C           Am            Em     D
Me dijo si me besas me dejo curar Oh oh

       G                     Bm
Y así en el tiempo pues nos solíamos ver
F                 Am
Noches traviesas bajo la escalera
G                      Bm
Éramos perversos, nos sentíamos bien
 F        Am             C
Ahora el asunto es refrescar
               Am                Em     D
Todas aquellas cosas sin ser muy brutal Oh oh
 C             Am                Em     D
Cogí su bella mano y la empecé a besar Oh oh

Coro:

  G                             Dm
Y es que sucede así cuando una chica es sensual
  Am               F                         G
Puede sentir la explosión de un volcán y el delirio
          Dm          Am               F
Si tú la sabes besar, puede perder el control se olvida de su sitio

Coro: G  Dm  Am  F (2x)

Riff:

E|--------------------------------------------------------|
B|--------------------------------------------------------|
G|---2-4-2-2-2---4-5-5-5-4-2-----2-4-2-2-2---4-5-5-5-4-2--|
D|5-5---------5-5-----------5-5-5---------5-5-----------5-|
A|-------------7---------------------------7--------------|
E|--------------------------------------------------------|

        G               Bm
Y en el silencio ella bajo la mirada
 F              Am
No dijo nada nunca dijo nada
  G                    Bm
Era como un sueño todo me salió bien
 F     Am               C
Oye mi amor que hermosa estas
              Am             Em   D
Sigues con esa mágica sensualidad Oh oh
C               Am              Em   D
Las cosas no terminan si sabes actuar Oh oh

Coro:

  G                             Dm
Y es que sucede así cuando una chica es sensual
  Am               F                         G
Puede sentir la explosión de un volcán y el delirio
          Dm          Am               F
Si tú la sabes besar, suele perder el control se olvida de su sitio

Coro 2x: G  Dm  Am  F (2x)

Riff:

E|--------------------------------------------------------|
B|--------------------------------------------------------|
G|---2-4-2-2-2---4-5-5-5-4-2-----2-4-2-2-2---4-5-5-5-4-2--|
D|5-5---------5-5-----------5-5-5---------5-5-----------5-|
A|-------------7---------------------------7--------------|
E|--------------------------------------------------------|

Acompañamiento del teclado: C  Am  Em  D (2x)

      G
Después de tiempo
      Bm
Me la encontré la otra vez
     F
Estaba bella
      Am
Y me la lleve a pasear

Coro: G  Dm  Am  F (Hasta el final)

Riff:

E|--------------------------------------------------------|
B|--------------------------------------------------------|
G|---2-4-2-2-2---4-5-5-5-4-2-----2-4-2-2-2---4-5-5-5-4-2--|
D|5-5---------5-5-----------5-5-5---------5-5-----------5-|
A|-------------7---------------------------7--------------|
E|--------------------------------------------------------|
Composición de Pedro Suárez Vértiz
Colaboración y revisión:
  • Diego Jesus
1.057 vistas
    • ½ Tono
    • A
    • Bb
    • B
    • C
    • Db
    • D
    • Eb
    • E
    • F
    • F#
    • G
    • Ab
  • Agregar a la lista

    0 comentarios

    Ver todos los comentarios

    ¿Lograste tocar?

    0 Tocaron 0 Aún no

    ¡Graba un video tocando Y Es Que Sucede Así (acústico) y envíanoslo!

    00:00 / 00:00
    Outros vídeos desta música
    Repetir Calidad Automático
    Outros vídeos desta música
    00:00 / 00:00
    Automático
    OK