Cifra Club

Fever

Peggy Lee

Chords: Principal (acoustic and electric guitars)
tone: Am
[Intro] Am7  C  Am7  C  Am7 
        E  G  Am7

E|----------------------------------------------------|
B|----------------------------------------------------|
G|----------------------------------------------------|
D|----------------------------------------------------|
A|--0-3---0-3---0--7-------0--------------------------|
E|-----------------0----3---------0-------------------|
    P.M...........................  

E|----------------------------------------------------|
B|----------------------------------------------------|
G|----------------------------------------------------|
D|----------------------------------------------------|
A|--0-3----0-3--0--7------0---------------------------|
E|-----------------0----3-------5-3-------------------|
   P.M...........................

[Primeira Parte]

E|----------------------------------------------------|
B|----------------------------------------------------|
G|----------------------------------------------------|
D|----------------------------------------------------|
A|--0-3---0-3--7-----------------0-3---0-3--7---------|
E|----------------------------------------------------|
   P.M...........................

E|----------------------------------------------------|
B|----------------------------------------------------|
G|----------------------------------------------------|
D|----------------------------------------------------|
A|--0-3----0-3--0--7------0---------------------------|
E|-----------------0----3-------5-3-------------------|
   P.M...........................

[Primeira Parte]

 Am7                   C     
Never know how much I love you
 Am7                   C   
Never know how much I care
  Am7                  C   
When you put your arms around me
         E               G       E
I get a fever that's so hard to bear
     Am7       C              
You give me fever

[Refrão]

  Am7     C       Am7    C         
When you kiss me fever when you hold me tight
 Am    C Am7     C
Fever!   In the morning
 E           G         Am7
Fever all through the night

[Segunda Parte]

 Am  C             Am7     C           
Sun lights up the daytime
 Am7        C            Am7  C
Moon lights up the night
Am7     C            Am7     C     
I light up when you call my name
          E              G        E
And you know I'm gonna treat you right

[Refrão]

  Am7     C       Am7    C         
When you kiss me fever when you hold me tight
 Am    C Am7     C
Fever!   In the morning
 E           G         Am7
Fever all through the night

[Terceira Parte]

Am7   C      Am7     C       
Everybody's got the fever
  Am7    C         Am7      C
That is something you all know
 Am    C     Am7         C            
Fever isn't such a new thing
 E      G            E   
Fever started long ago

( Bbm  Db  Bbm  Db  Fm )
( Bb  F  Abm  Bbm )

E|----------------------------------------------------|
B|----------------------------------------------------|
G|----------------------------------------------------|
D|----------------------------------------------------|
A|--1-4----1-4--1--8------1---------------------------|
E|-----------------1----4-------6-4-------------------|

   P.M...........................

[Quarta Parte]

E|----------------------------------------------------|
B|----------------------------------------------------|
G|----------------------------------------------------|
D|----------------------------------------------------|
A|--1-4---1-4--8-----------------1-4---1-4--8---------|
E|----------------------------------------------------|

   P.M...........................

E|----------------------------------------------------|
B|----------------------------------------------------|
G|----------------------------------------------------|
D|----------------------------------------------------|
A|--1-4----1-4--1--8------1---------------------------|
E|-----------------1----4-------6-4-------------------|

   P.M...........................

 Bbm   Db       Bbm  Db
Romeo loved Juliet
 Bbm        Db       Bbm  Db  Fm 
Juliet she felt the same
  Bbm    Db     Bbm  Db
When he put his arms around her
 Bb        F          Abm          Bbm 
He said,  Julie, Baby, you're my flame”
             Bbm   Db               
Thou giveth fever
  Bbm    Db     Bbm   Db          Bbm     Db
When we kisseth, fever with thy flaming youth
Bbm    Db     Bbm    Db                   Am
"Fever! I'm a fire
 Bb  F          Abm      Bbm 
Fever, yeah, I burn, forsooth”

E|----------------------------------------------------|
B|----------------------------------------------------|
G|----------------------------------------------------|
D|----------------------------------------------------|
A|--2-5----2-5--2--9------2---------------------------|
E|----------------------5-----------------------------|

   P.M...........................

[Quinta Parte]

E|----------------------------------------------------|
B|----------------------------------------------------|
G|----------------------------------------------------|
D|----------------------------------------------------|
A|--2-5---2-5--9-----------------2-5---2-5--9---------|
E|----------------------------------------------------|

   P.M...........................

E|----------------------------------------------------|
B|----------------------------------------------------|
G|----------------------------------------------------|
D|----------------------------------------------------|
A|--2-5----2-5--2--9------2---------------------------|
E|-----------------2----5-------7-5-------------------|

 Bm       D        Bm     D  F# 
Captain Smith and Pocahontas 
 Bm    D    Bm    D
Had a very mad affair
  Bm            D         Bm  D               F#         A
When her daddy tried to kill him, she said, "Daddy, oh, don't you
 Bm
Dare!”

 Bm       D        Bm       D       Bm     D      Bm       D    F# 
He gives me fever with his kisses, fever when he holds me tight
       Bm  D
Fever! 
Bm     D            F#            A   Bm
I'm his misses, so Daddy, Won't you treat him right?”
 Bm         D        Bm     D     Bm                   D        Bm       D    F#
Now you've listened to my story, here's the point that I have made
  Bm                  D       Bm           F#            A     Bm    
Chicks were born to give you fever, be it Fahrenheit or Centigrade
                   Bm  D     
They give you fever
  Bm         D        Bm     D    Bm            D  F#
When you kiss them, fever if you live and learn
 Bm     D         Bm    D  F#           A       Bm
Fever! 'till you sizzle, what a lovely way to burn

  F#           A       Bm
What a lovely way to burn
  F#           A       Bm
What a lovely way to burn
  F#           A       Bm
What a lovely way to burn
00:00 / 00:00
Other videos of this song
Repeat
Other videos of this song
Composed by Eddie Cooley / John Davenport
Collaboration and Review:
  • Getúlio Vasconcelos
  • leo
2.932 views
    • ½ Tone
    • Am
    • Bbm
    • Bm
    • Cm
    • C#m
    • Dm
    • Ebm
    • Em
    • Fm
    • F#m
    • Gm
    • G#m
  • Add to list
    00:00 / 00:00
    OK