Cifra Club

Ashes

Pepper

Cifrado: Principal (guitarra y guitarra eléctrica)
tono: C

verse
|---------------------3-3-3-3--------------------|
|-7-7-7-7---3-3-3-3---5-5-5-5---5-5-5-5/--7-7-7-7|
|-9-9-9-9---5-5-5-5---5-5-5-5---7-7-7-7/--9-9-9-9|     
|-9-9-9-9---5-5-5-5---0-0-0-0---7-7-7-7/--9-9-9-9|
|-0-0-0-0---0-0-0-0---0-0-0-0---0-0-0-0---0-0-0-0|
|-0-0-0-0---0-0-0-0---0-0-0-0---0-0-0-0---0-0-0-0|  x6

Chorus
|-3-3-0-3-0-3---5-5-0-5-0-5---8- 8-0- 8-0- 8-0- 8- 8-0- 8-0---10-10-10-|
|-5-5-0-5-0-5---7-7-0-7-0-7--10-10-0-10-0-10-0-10-10-0-10-0---12-12-12-|
|-5-5-0-5-0-5---7-7-0-7-0-7--10-10-0-10-0-10-0-10-10-0-10-0---12-12-12-|
|----------------------------------------------------------------------|
|----------------------------------------------------------------------|
|----------------------------------------------------------------------|  x4

on 4th 

|-3-3-0-3-0-3---5-5-0-5-0-5---8- 8-0- 8-0- 8-0- 8- 8-0- 8-0-|
|-5-5-0-5-0-5---7-7-0-7-0-7--10-10-0-10-0-10-0-10-10-0-10-0-|
|-5-5-0-5-0-5---7-7-0-7-0-7--10-10-0-10-0-10-0-10-10-0-10-0-|
|-----------------------------------------------------------|
|-----------------------------------------------------------|
|-----------------------------------------------------------|  

Listen to song for tempo and effects I like to use a ibanez tube screamer,
you just have to find the right settings.

peace
00:00 / 00:00
Otros videos de esta canción
Repetir
Otros videos de esta canción
Compositor no encontrado.
28 vistas
    • ½ Tono
    • A
    • Bb
    • B
    • C
    • Db
    • D
    • Eb
    • E
    • F
    • F#
    • G
    • Ab
  • Agregar a la lista

    0 comentarios

    Ver todos los comentarios
    00:00 / 00:00
    OK