Cifra Club

Dirty Hot Sex

Pepper

Cifrado: Principal (guitarra y guitarra eléctrica)
tono: F#
intro

e-----------------|
b-----------------|
g-----------------|
d---8-------------|
a---7-------------|
E------8----6-----|
not hard to figer out struming patter
---------------------------------------------------------|
---------------------------------------------------------|
--8----6 times ------------------------------------------|
--7--------------10-----6 times --8----------8 times ----|
-----------------8----------------6----------------------|

do that a couple times   i forget how many times  i think 6

---------------------------------|
---------------------------------|
---------------------------------|
---------------------------------|   strum each cord once ( = means hold )
6-=====---10-====---8-====-------|
4-=====---7-====---6-====--------|

------------------------------------------------------|
------------------------------------------------------|
------------------------------------------------------|
------------------------------------------------------|
6----(6 times) ----10--(6 times) ----8--(8 times )----|
4-------------------7----------------6----------------|
 strum the cords same pattern kepp repeating

not sure about the why u gota sleep wit my dad part but  i  hope this is right


--6------------------/-1------|
--7----twice---slide /-2------|
--6------------------/-1------|
------------------------------|
------------------------------|
------------------------------|

 thats the whole song same thing but theres some pulm mutes same cords not hard to figer 
 now this isnt 100 percent right and its  my first tab and im not very good at tabing 
so dont  complain about it if its not good enoff then find it out for urself

 ps ..  mind my spelling erors  ..lol

 u can figer out how many times to do iit  by lsting i hope its  better than the other 
i saw on here lol
00:00 / 00:00
Otros videos de esta canción
Repetir
Otros videos de esta canción
Compositor no encontrado.
63 vistas
    • ½ Tono
    • A
    • Bb
    • B
    • C
    • Db
    • D
    • Eb
    • E
    • F
    • F#
    • G
    • Ab
  • Agregar a la lista

    0 comentarios

    Ver todos los comentarios

    ¿Lograste tocar?

    0 Tocaron 0 Aún no

    ¡Graba un video tocando Dirty Hot Sex y envíanoslo!

    00:00 / 00:00
    OK