Cifra Club

Office

Pepper

Cifrado: Principal (guitarra y guitarra eléctrica)
tono: C
Album: Kona Town
*Tune Half-Step down*

Listen for Timing


Intro: Probably Power Chords(w/Distortion)
      A    C    D    E
------5----8----5----7-----------------------------|
------5----8----7----9-----------------------------|
------6----9----7----9-----------------------------|
------7----10---7----9-----------------------------|
------7----10---5----7-----------------------------|
------5----8---(5)--(7)----------------------------|

Verse: Clean BarChords (Listen for the riff he does with the A/G/A its just a little 
and forth thing. The rest of the verse is just normal reggae upstroke)

Riff: A -G- A    D     E
------5--3--5----5-----7----------------|
------5--3--5----7-----9----------------|
------6--4--6----7-----9----------------|
------7--5--7----7-----9----------------|
------7--5--7----5-----7----------------|
------5--3--5---------------------------|

(**Last verse instead of just playing the E he slides back and forth between and E and a 
quickly**)

Chorus:
(Pick individual strings)

  C    B
--8----7---------------------------------|
--8----7---------------------------------|
--9----8---------------------------------|
--10---9---------------------------------|
--10---9---------------------------------|
--8----7---------------------------------|

Solo: Am Pentatonic if I remember correctly
00:00 / 00:00
Otros videos de esta canción
Repetir
Otros videos de esta canción
Compositor no encontrado.
14 vistas
    • ½ Tono
    • A
    • Bb
    • B
    • C
    • Db
    • D
    • Eb
    • E
    • F
    • F#
    • G
    • Ab
  • Agregar a la lista

    0 comentarios

    Ver todos los comentarios

    ¿Lograste tocar?

    0 Tocaron 0 Aún no

    ¡Graba un video tocando Office y envíanoslo!

    00:00 / 00:00
    OK