Cifra Club

Punk Rock Cowboy Intro

Pepper

Cifrado: Principal (guitarra y guitarra eléctrica)
tono: G
Recorded on: In With the Old

Tabbed by: Gus Pablo

Tuning: Standard

This is just the intro. After this is played a bunch of power chords... they should be
to figure out, so I figure it's a waste to just transcribe them out for you. You have to
in some effort too, hm?


e|---------------------------------------------------------------------------|
B|-----------------------------1---------------------------------------------|
G|--------0---------0-------------0------------------------------------------|
D|------2---------2---------2--------2--0------------------------------------|  x3
A|-3-------------------3-----------------------------------------------------|
E|-----------3---------------------------------------------------------------|


Then go...

e|---------------------------------------------------------------------------|
B|---------------------------------------------------------------------------|
G|--------0---------0--------------------------------------------------------|
D|------2---------2----------------------------------------------------------|
A|-3-------------------3-------0--2------------------------------------------|
E|-----------3--------------3------------------------------------------------|


After that you repeat the first part a couple times over the first verse, then the power
come in on the chorus. Good luck!

===============================================================================
00:00 / 00:00
Otros videos de esta canción
Repetir
Otros videos de esta canción
Compositor no encontrado.
8 vistas
    • ½ Tono
    • A
    • Bb
    • B
    • C
    • Db
    • D
    • Eb
    • E
    • F
    • F#
    • G
    • Ab
  • Agregar a la lista

    0 comentarios

    Ver todos los comentarios

    ¿Lograste tocar?

    0 Tocaron 0 Aún no

    ¡Graba un video tocando Punk Rock Cowboy Intro y envíanoslo!

    00:00 / 00:00
    OK