Cifra Club

Rent

Pepper

Tab de bajo: Principal
Tabbed By : Tim Urbanski
e-mail: S*

Tuning: Normal
 p=pull off 
 h=hammer on         
 /=slide
  Intro
G|--------------------------------------------------------------------------|
D|-----0-0000---------------0-0------0--0000--------------------------------|
A|--2----------------------------0h2----------------0h2p0-0h2p0-2-4---------|
E|------------3-3/5--33-3/5-------------------3-3/5-------------------------|

G|--------------------------------------------------------------------------|
D|------0-0000--------------------5--0--5-7-5-7-0---------------------------|
A|--0h2-----------------------/7-7------------------------------------------|
E|-------------3-3/5--33-3/5------------------------------------------------|

  Chorus
G|--------------------------------------------------------------------------|
D|-------5--0--5-7-5-7-0-------5--0---0-0557-----0-0000---------------------|
A|--/7--7-----------------/7--7--------------0h2----------------------------|
E|------------------------------------------------------3-3/5--33-3/5-------|

   (2:18)
G|--------------------------------------------------------------------------|
D|--/12~~~10~~~-------------------------------------------------------------|
A|--------------------------------------------------------------------------|
E|--------------------------------------------------------------------------|
00:00 / 00:00
Otros videos de esta canción
Repetir
Otros videos de esta canción
Composición de Pepper
14 vistas

0 comentarios

Ver todos los comentarios
00:00 / 00:00
OK