Cifra Club

Zickys Song

Pepper

Cifrado: Principal (guitarra y guitarra eléctrica)
tono: A
[Intro]

E|----------------------------------------------------------------|
B|----------------------------------------------------------------|
G|----------------------------------------------------------------|
D|-------------------------------------------------------66-------|
A|------77--------44---77------------66----------44---77----77----|
E|---55---------------------------44------------------------------|

[Versos]

E|---5-------------4-------------------------4--------------------|
B|------5----------5------------4----------5-----5----------------|
G|---------6-----6------------4----------6---------6--------------|
D|-------------6-----------6--------------------------------------|
A|----------------------------------------------------------------|
E|----------------------------------------------------------------|

[Refrão]

E|---5------4------4------4----------------------------------------|
B|---5------5------4------5----------------------------------------|
G|---6------6------4------6----------------------------------------|
A|---7------6------6------6----------------------------------------|
D|---7------4------6------4----------------------------------------|
E|---5------x------4------x----------------------------------------|
00:00 / 00:00
Otros videos de esta canción
Repetir
Otros videos de esta canción
Composición de Pepper
Colaboración y revisión:
  • Marcelo Queiroz
14 vistas
    • ½ Tono
    • A
    • Bb
    • B
    • C
    • Db
    • D
    • Eb
    • E
    • F
    • F#
    • G
    • Ab
  • Agregar a la lista

    0 comentarios

    Ver todos los comentarios

    ¿Lograste tocar?

    0 Tocaron 0 Aún no

    ¡Graba un video tocando Zickys Song y envíanoslo!

    00:00 / 00:00
    OK