Cifra Club

Tristeza

Pereza

Cifrado: Principal (guitarra y guitarra eléctrica)
tono: Bm
Intro:

        C                Em              B                 Em
E|----------------|---------------|---------------|----------------|
B|----------------|---------------|---------------|----------------|
G|--12--9------9--|--12--9-----9--|--11--8-----8--|--12-91112119---|
D|---------10-----|---------9-----|---------9-----|----9--------9--|
A|----------------|---------------|---------------|----------------|
E|----------------|---------------|---------------|----------------|

        C               Em               B                 D
E|----------------|---------------|---------------|----------------|
B|----------------|---------------|---------------|----------------|
G|--12--9------9--|--12--9-----9--|--11--8-----8--|--11--8--12--9--|
D|---------10-----|---------9-----|---------9-----|----------------|
A|----------------|---------------|---------------|----------------|
E|----------------|---------------|---------------|----------------|


Tocándola en quintas suena como tendría que ser. Yo voy a poner
simplemente los acordes encima de la letra...

Verse:

G               C      G               C
No necesito velocidad, solo mas viento,surfear,
G                   C              A       C    D
la ola que nos sacudió y nos escondió en algún mar,
G               C               G             C
con esto tiempo cualquiera esta en el momento en el lugar,
G                   C                A
siempre soñamos que vuelva a pasar y yo,
C              D
que no ocurra mas.


Estribillo:

Em         C          G       B
Cuando te tengo cerca algo en mi se aleja,
Em         C          G            B
de nuevo esa tristeza que rompe en mi cabeza,

   (aquí entra una 2ª guitarra tocando el intro con alguna variación..)
C            Em
que rompe en mi cabeza,
B          Em
de nuevo esa tristeza,
C            Em
que rompe en mi cabeza,
B          D
de nuevo esa tristeza.


Verse:

No necesito mediocridad,
no quiero armas,no quiero paz
ni mas escenas en la puerta de algun bar,vale ya.
Si me permito desafiar
cuando me salga,cuando te va
nunca pensamos que fuera acabar,
y hoy como pudo empezar


Estribillo:

Em         C          G       B
Cuando te tengo cerca algo en mi se aleja,
Em         C          G            B
de nuevo esa tristeza que rompe en mi cabeza,

C            Em
que rompe en mi cabeza,
B          Em
de nuevo esa tristeza,
C            Em          B
que rompe en mi cabeza,



Bridge:

Aaaaaaaaaaaaaaaaaaaaaaaaaaaa

E|-------------------|-------------------|-------------------|------------|
B|-------------------|-------------------|-------------------|------------|
G|-------------------|-------------------|-------------------|------------|
D|-------------------|-------------------|-------------------|------------|
A|--3-3-3-3-3-3-3-3--|-------------------|--3-3-3-3-3-3-3-3--|--5-5-5-----|
E|-------------------|--5-5-5-5-5-5-5-5--|-------------------|---------7--|



Solo:

   Em      G         C            Em    G          C
E|-----------------------------|--------------------------------|
B|--/12~--12p10------12p10-----|--/12~--12p10------12p10--------|
G|---------------12--------12--|---------------12--------12--9--|
D|-----------------------------|--------------------------------|
A|-----------------------------|--------------------------------|
E|-----------------------------|--------------------------------|

          A
E|----------------------|
B|--------12p10---------|
G|--9h12--------12--9~--|
D|----------------------|
A|----------------------|
E|----------------------|


Outro:

Bm        G           D       F#
Cuando te tengo cerca algo en mi se aleja,
Bm         G          D            F#
de nuevo esa tristeza que rompe en mi cabeza,

    (aquí la estructura para la 2ª guitarra es la misma que en el Intro,
       pero adaptándola a los acordes correspondientes, que no es difícil)

G            Bm
que rompe en mi cabeza,
F#          Bm
de nuevo esa tristeza,
G            Bm
que rompe en mi cabeza,
F#         G     A   Bm
de nuevo esa tristezaaaaa.
00:00 / 00:00
Otros videos de esta canción
Repetir
Otros videos de esta canción
Compositor no encontrado.
6 vistas
    • ½ Tono
    • Am
    • Bbm
    • Bm
    • Cm
    • C#m
    • Dm
    • Ebm
    • Em
    • Fm
    • F#m
    • Gm
    • G#m
  • Agregar a la lista

    0 comentarios

    Ver todos los comentarios

    ¿Lograste tocar?

    0 Tocaron 0 Aún no

    ¡Graba un video tocando Tristeza y envíanoslo!

    00:00 / 00:00
    OK