Cifra Club

Tu Infierno

Pereza

Cifrado: Principal (guitarra y guitarra eléctrica)
tono: F#
Intro: F# A#m D#m B x2

E|----------------------------------------------|
B|-------------------------11-11--11--11-14-11--|
G|-11-11-11-11-11-11-11/13----------------------|
D|----------------------------------------------|
A|----------------------------------------------|
E|----------------------------------------------|
                                         ^
E|----------------------------------| |
B|----------------------------------| |
G|-11-11-11-11-11-11-11/13----------| <-+-- x2
D|--------------------------13--11--|
A|----------------------------------|
E|----------------------------------|

 - VERSO -

- Pitu toca el punteo 1 durante los dos primeros versos. Luego toca el
  punteo 2 hasta el estribillo.
- Rubén toca los acordes de la intro durante los dos primeros versos.

              PUNTEO 1                          PUNTEO 2

E|-----9--11----------9--11----------| |---------------------|
B|-11---------12--11---------11--12--| |--11-x----x-x-x-x-x--|
G|-----------------------------------| |-----x-13-x-x-x-x-x--|
D|-----------------------------------| |---------------------|
A|-----------------------------------| |---------------------|
E|-----------------------------------| |---------------------|


F#        A#m      D#m    B F#      A#m  D#m   B
No pienso quedarme contigo, no va a pasar nada
No torceré mi camino por desviarlo a tu cama
No puedo decir que sí aunque lo deseo

F#      A#m      D#m   B      C#
Todo me arde por dentro  y me quema que estés aquí


B                C#    F#                 D#m
No voy a hacerte feliz porque mi chica me espera
        B                    F#             C#
Así que apaga el fuego de la caldera que tu infierno
           F#
No es para mí


 - INTRO -


Soy fiel a la boca que me da de comer
Al ombligo que me vuelve loco
Y a los labios que me dicen 'pero bueno
Qué bueno que ya estás aquí'

Llevas tiempo haciéndome un lío
Llevas tiempo estando por aquí
Lleva tiempo lograr objetivos
Y a puntito que estás de lograrme a mí

No voy a hacerte feliz porque mi chica me espera
Así que apaga el fuego de la caldera que tu infierno
No es para mí


 - G  O -

- Rubén: F# A#m D#m B x3
         F# A#m D#m C#

- Pitu: (o no sé quién) hace un solo de harmónica. Aquí está transcrito
        para guitarra.

E|-7/9--11-9-11--9-|-11-9-11--9-|-11-9-11--9-|----------------------|
B|-----------------|------------|------------|-11-12-11-12----------|
G|-----------------|------------|------------|-------------11/10/11-|
D|-----------------|------------|------------|----------------------|
A|-----------------|------------|------------|----------------------|
E|-----------------|------------|------------|----------------------|

No voy a hacerte feliz porque mi chica me espera
Así que apaga el fuego de la caldera que tu infierno
No es para mí

Uuuu, no es para mí
No es para mí


 - FINAL -

Se toca la intro dos veces y Rubén acaba con F#


 - ACORDES -

Como siempre, Pereza toca más arriba de lo normal...
Aquí los acordes correctos:

  F#       A#m      D#m       B        C#
-- 9--    --6--    --6--    --7--    -- 9--
E|--11--| --6--    --7--    --7--    -- 9--
B|--11--| --6--    --8--    --8--    --10--
G|--11--| --8--    --8--    --9--    --11--
-- 9--    --8--    --6--    --9--    --11--
-- x--    --6--    --x--    --7--    -- 9--
00:00 / 00:00
Otros videos de esta canción
Repetir
Otros videos de esta canción
Composición de Rubén pozo prat
1 vistas
    • ½ Tono
    • A
    • Bb
    • B
    • C
    • Db
    • D
    • Eb
    • E
    • F
    • F#
    • G
    • Ab
  • Agregar a la lista

    0 comentarios

    Ver todos los comentarios

    ¿Lograste tocar?

    0 Tocaron 0 Aún no

    ¡Graba un video tocando Tu Infierno y envíanoslo!

    00:00 / 00:00
    OK