Cifra Club

The Wind Book

Persefone

Cifrado: Principal (guitarra y guitarra eléctrica)
Selo Cifra Club: esta cifra foi revisada para atender aos critérios oficiais da nossa Equipe de Qualidade.
tono: Gm
|Gm7|Bb|Gm7|Bb|Gm7|Bb|Csus2|Dm7 D#dim7|Gm7|D#sus2|F|Dm7 D#dim7|
|Gm7|Dm7 D#sus2|Dm7 D#sus2|Dm7 D#sus2|Csus2|Dm7 D#dim7|

E|-----------------------|--------------|---------------------|------------------------|
B|-------11--11---11---11|-------------8|---------6-----------|------------------------|
G|--\12---12---12---12---| 12~~~-----\7--|7~----\5--5~------/3-|3h5---------------------|
D|-----------------------|--------------|---------------------|----------3h5-3~(3)\----|
A|-----------------------|--------------|---------------------|------------------------|
E|-----------------------|--------------|---------------------|------------------------|

E|------------6---------6-----|-----------------------------|----------------------6---|
B|--/3--6--8----6--6h8-----6--| 6h8~~~-----------------------|-----------------6h8----8-|
G|----------------------------|---------------x-6sb5--3-(3)-| 3h5-----------------------|
D|----------------------------|-----------------------------|-------3h5-3~-------------|
A|----------------------------|-----------------------------|--------------------------|
E|----------------------------|-----------------------------|--------------------------|

E|-----------6/2~-----------------|----------------------------------------------------|
B|---8/3~------------3h4-3--------|----------------------------------------------------|
G|------------------------------3-| 3h5--5/7--5--5\3------------------------------------|
D|--------------------------------|----------------------------------------------------|
A|--------------------------------|----------------------------------------------------|
E|--------------------------------|----------------------------------------------------|

E|-------6--8b10--8--6p5-|------------------------|------------------------------------|
B|--/8-------------------| 6-6/8-8\3~--------------|------------------------------------|
G|-----------------------|------------------3-5-3-|-5b6--5p3h5~--3h5p3---3h5p3---3-----|
D|-----------------------|---------------/5-------|--------------------5-------5---5-3-|
A|-----------------------|------------------------|------------------------------------|
E|-----------------------|------------------------|------------------------------------|


E|--------------------------------|--/6-5------5h6-5---|-8--8/10-6~--5b6-5-------------|
B|--------------------------------|--------6~--------6-|-------------------6-6/8-------|
G|----------------3-5-5/7-3~~-----|--------------------|-------------------------7~~---|
D|------------3h5-----------------|--------------------|-------------------------------|
A|--5\3p1-3/5---------------------|--------------------|-------------------------------|
E|--------------------------------|--------------------|-------------------------------|


E|---------------------------------|---------------------------------------------------|
B|---------------------------------|---------------------------------------------------|
G|--3----3---5b7-5p3---------------|-------5~-3----------------------------------------|
D|--3h5----3---------5p3-----------|-3h5p3------4~~~-----------------------------------|
A|-----------------------5/3p1-3/5~|---------------------------------------------------|
E|---------------------------------|---------------------------------------------------|

Main Riff

E|-----------------------|---------------------6---------------------------------------|
B|------------------3----|---------6-----8------10p6-----------------------------------|
G|-------------3---5-5---|--3---3---------8--------------------------------------------|
D|----5---3---5---5---5--|-3---3-----8-----8---------8---------------------------------|
A|---5---3---5---3-----3-| 1--------5-----6-----6---------------------------------------|
E|--3---6----------------|----3--------------------------------------------------------|

Repeat this four times.

E|-----------------1-----|---------------1---------------------------------------------|
B|----3---3---1---1-1-1--|-3-3--3--1----1-1-1------------------------------------------|
G|---3---3---2---2---2---|--3--3--3----3---3-------------------------------------------|
D|--5---4---3---3--------|-1--1--------------------------------------------------------|
A|-----------------------|---------3--3------------------------------------------------|
E|-----------------------|-------------------------------------------------------------|

Repeat this four times, as well.
E|-------1-----------------------------------------------------------------------------|
B|--------1----------------------------------------------------------------------------|
G|----2h3--3---------------------------------------------------------------------------|
D|---0---------------------------------------------------------------------------------|
A|-------------------------------------------------------------------------------------|
E|--3----------------------------------------------------------------------------------|

~ = vibrato (actually completely optional)
\ / = slide
b/sb = bend/start in bend
h = hammer on
p = pull-off
x = silenced note
Otros videos de esta canción
    1 exhibiciones
      • ½ Tono
      • Am
      • Bbm
      • Bm
      • Cm
      • C#m
      • Dm
      • Ebm
      • Em
      • Fm
      • F#m
      • Gm
      • G#m
    • Agregar a la lista

    Afinação da cifra

    Afinador online

      Ops (: Contenido disponible solo en portugués.
      OK