Cifra Club

Cantata de puentes amarillos

Pescado Rabioso

Cifrado: Principal (guitarra y guitarra eléctrica)
Selo Cifra Club: esta cifra foi revisada para atender aos critérios oficiais da nossa Equipe de Qualidade.
tono: Dm
[Tab - Intro]

Parte 1 de 8
E|-------------------------------------|
B|-------------------------------------|
G|-------------------------------------|
D|-------------------------------------|
A|---------9h11-9----------9h11-9------|
E|-9-10-12---------9-10-12-------------|

Parte 2 de 8
E|-------------------------------------|
B|-------------------------------------|
G|-------------------------------------|
D|-------------------------------------|
A|-----------9h11-9---12-11-9-12-11----|
E|---9-10-12---------------------------|

Parte 3 de 8
E|-------------------------------------|
B|-------------------------------------|
G|-------------------------------------|
D|----------9h11-9----------9h11-9-----|
A|-9-11-12--------9-11-12--------------|
E|-------------------------------------|

Parte 4 de 8
E|-------------------------------------|
B|-------------------------------------|
G|-------------------------------------|
D|----------9h11-9-12-11-9-12-11-------|
A|-9-11-12-----------------------------|
E|-------------------------------------|

Parte 5 de 8
E|------------------9------------------|
B|-------------10-9--------------------|
G|--------9-11-------------------9-11--|
D|-11-12-----------------11-12---------|
A|-------------------------------------|
E|-------------------------------------|

Parte 6 de 8
E|-------9-------------------9---------|
B|--10-9----------------10-9-----------|
G|-----------------9-11----------------|
D|----------11-12----------------------|
A|-------------------------------------|
E|-------------------------------------|

Parte 7 de 8
E|--------------------------9----------|
B|-10h9-------------------10-----------|
G|--------11h9-----------11------------|
D|---------------12-----12-------------|
A|-------------------------------------|
E|-------------------------------------|

Parte 8 de 8
E|-------4----------9--------9---------|
B|------5----------10-------9----------|
G|-----6----------11------10-----------|
D|----7----------12------11------------|
A|--0-------------------11-------------|
E|---------------------9---------------|

[Primeira Parte]

    A            D/F#
Ah, ah ah ah... ahahah ah ahah
        E    D    C
Todo camino puede andar
  C   B      Bb
Todo puede andar

[Tab - Riff 1]

E|--------------------|
B|--5--5--5--5--5--5--|
G|--6--6--6--7--6--6--| (4x)
D|--4--4--4--4--4--4--|
A|--0--0--0--0--0--0--|
E|--------------------|

A    A4           A     A4
Con esta sangre alrededor
A    A4           A     A4
No sé qué puedo yo mirar
D7        D4    D7   D7(4)
 La sangre ríe, idiota
       G
Como esta canción
          Gm7
¿Y ante quién?
  D                      Bb   A
Ensucien sus manos como siem-pre
   D                     Bb   A  D/F#
Relojes se pudren en sus men-tes ya
Cm7  Bm7  G   Cm7 Bm7 G
 Y en el mar, nau fra go
Cm7  Bm7   G                C
 U - na   balsa que nunca zarpó
    Em Am       G D/F#
Mar a-quí,  mar a-llá

[Segunda Parte]

A    A4           A     A4
En un momento vas a ver
A    A4           A     A4
Que ya es la hora de volver
D7        D4    D7   D7(4)
Pero trayendo a casa
             G
Todo aquel fulgor
          Gm7
Y, ¿para quién?
    D                      Bb  A
Las almas repudian todo encie-rro
     D                   Bb
Las cruces dejaron de llover

[Refrão]

F#m
 Sube al taxi, nena
G     F#m        C#7
Los hombres te miran
             D7M
Te quieren tomar
F#m
 Ojo el ramo, nena
G      F#m     C#7
Las flores se caen
           D7M
Tenés que parar
B7                   E            D7M
 Vi la sortija muriendo en el carrusel
B7
 Vi tantos monos, nidos
    E      D7M
Platos de café
   E       D7M  C#7
Platos de café, ah-a-ah

[Tab - Riff 2]

E|-----------------------9--7----|
B|-----------------6--7--9--7----|
G|--6--7--6--6-----4--4--7--6----|
D|--4--4--4--4--7--0--0----------|
A|--0--0--0--0-------------------|
E|-------------------------------|

E|-------------------------------|
B|----------------------------4--|
G|----6--7--6---6-4-----------3--| (2X)
D|----4--4--4--------7--4-----4--|
A|----0--0--0--------------4--4--|
E|-------------------------------|

( B7  A  A7M  Bm7  C#7 )

[Refrão]

F#m
 Guarda el hilo, nena
G      F#m     C#7
Guarden bien tus manos
         D7M
Esta libertad
F#m
 Ya no poses, nena
G      F#m     C#7
Todo eso es en vano
           D7M
Como no dormir
B7
 Aunque me fuercen
      E         D7M
Yo nunca voy a decir
B7                     E         D7M
 Que todo tiempo por pasado fue mejor
 E         D7M C#7  F#m
Mañana es mejor, ah-a-ah

( D7  G#m  E7  Am  F#7 )

[Ponte]

Bm                         G
Ah... ah ah ah ah ah ah ah ah
A           Bb        Bm
Ah ah ah ah, ah ah ah ah
Bm                         E
Ah... ah ah ah ah ah ah ah ah
F            F#
Ah ah ah ah, ah ah ah ah

( Bm  F  C  Bm )
( G  C  G  Bm )
( G  C  G )

[Terceira Parte]

Bm                 G    C
 Aquellas sombras del camino azul
  G      Bm  A  Bm
¿Dónde están?
Bm               G     C
 Yo las comparo con cipreses que vi
G  Bm        A  Bm
 Solo en sueños
            G       C              G  Bm      G  C
 Y las muñecas tan sangrantes están de llorar
A                 C
 Yo te amo tanto que
    C#m            C     A    C  C#m  C
No puedo despertarme sin amar
A               C         C#m        C       A    C C#m C
 Y te amo tanto que, no puedo despertarme sin amar
A               C         C#m        C       A    C C#m C
 Y te amo tanto que, no puedo despertarme sin amar

[Ponte]

Bm                         G
Ah... ah ah ah ah ah ah ah ah
A           Bb        Bm
Ah ah ah ah, ah ah ah ah
Bm                         E
Ah... ah ah ah ah ah ah ah ah
F            F#
Ah ah ah ah, ah ah ah ah

( Bm  F  C  Bb )

[Tab - Riff 2]

E|-----------------------9--7----|
B|-----------------6--7--9--7----|
G|--6--7--6--6-----4--4--7--6----|
D|--4--4--4--4--7--0--0----------|
A|--0--0--0--0-------------------|
E|-------------------------------|

E|-------------------------------|
B|----------------------------4--|
G|----6--7--6---6-4-----------3--| (2X)
D|----4--4--4--------7--4-----4--|
A|----0--0--0--------------4--4--|
E|-------------------------------|

F#m   C                 F#m
No, nunca la abandones, no
C
Puentes amarillos
F#m             C
Mira el pájaro, se muere en su jaula

[Tab - Riff 2]

E|-----------------------9--7----|
B|-----------------6--7--9--7----|
G|--6--7--6--6-----4--4--7--6----|
D|--4--4--4--4--7--0--0----------|
A|--0--0--0--0-------------------|
E|-------------------------------|

E|-------------------------------|
B|----------------------------4--|
G|----6--7--6---6-4-----------3--| (2X)
D|----4--4--4--------7--4-----4--|
A|----0--0--0--------------4--4--|
E|-------------------------------|

[Refrão Final]

F#m   C
No, nunca la abandones
F#m
Puentes amarillos
C                     F#m
Se muere en su jaula, mira el pájaro
C
Puentes amarillos
D
Hoy
  Gm7  Bb
Te amo ya
Am7     F#   Bb
Y ya es mañana
(Mañana, Mañana, Mañana)

[Tab - Final]

E|-----------------------9--7----|
B|-----------------6--7--9--7----|
G|--6--7--6--6-----4--4--7--6----|
D|--4--4--4--4--7--0--0----------|
A|--0--0--0--0-------------------|
E|-------------------------------|

E|-------------------------------|
B|----------------------------4--|
G|----6--7--6---6-4-----------3--| (2X)
D|----4--4--4--------7--4-----4--|
A|----0--0--0--------------4--4--|
E|-------------------------------|
Otros videos de esta canción
    34.869 exhibiciones
      • ½ Tono
      • Am
      • Bbm
      • Bm
      • Cm
      • C#m
      • Dm
      • Ebm
      • Em
      • Fm
      • F#m
      • Gm
      • G#m
    • Agregar a la lista

    Afinación de cifrado

    Afinador online

      OK