Cifra Club

Always On My Mind

Pet Shop Boys

Chords: Principal (acoustic and electric guitars)
tone: G
Intro:

        G              D/F#                 Em             C           D

E|------7--------------5-5-5-5-----7-|------3--------------3-3-3-3-----5-|
B|------8--------------7-7-7-7-----7-|------5--------------5-5-5-5-----7-|
G|------7--------------7-7-7-7-----7-|------4--------------5-5-5-5-----7-| x2
D|-----------------------------------|-----------------------------------|
A|-----------------------------------|-----------------------------------|
E|-----------------------------------|-----------------------------------|

        G              D/F#                 Em             C           D

E|------7--------------5-5-5-5-----7-|------3--------------3-3-3-3-----5-|
B|------8--------------7-7-7-7-----7-|------5--------------5-5-5-5-----7-|
G|------7--------------7-7-7-7-----7-|------4--------------5-5-5-5-----7-|
D|-----------------------------------|-----------------------------------|
A|-----------------------------------|-----------------------------------|
E|-----------------------------------|-----------------------------------|


        C           D  C           D

E|------3-3-3-3-----5--3-3-3-3-----5-|
B|------5-5-5-5-----7--5-5-5-5-----7-|
G|------5-5-5-5-----7--5-5-5-5-----7-|
D|-----------------------------------|
A|-----------------------------------|
E|-----------------------------------|
00:00 / 00:00
Other videos of this song
Repeat
Other videos of this song
Composed by Johnny Christopher / Mark James / Wayne Carson Thompson
Collaboration and Review:
  • Willian Donadelli
1.638 views
  • Simplify chords
    • ½ Tone
    • A
    • Bb
    • B
    • C
    • Db
    • D
    • Eb
    • E
    • F
    • F#
    • G
    • Ab
  • Add to list
    00:00 / 00:00
    OK