Cifra Club

Cielo e Infierno

Peteco Carabajal

Cifrado: Principal (guitarra y guitarra eléctrica)
tono: Bm

Bm           F#m
E|-----------------------------| (es igual al original)
B|-----------------------------|
G|-----------------------------|
D|------0-0-4-4----------------|
A|--2-2-------------0-0-4-4----|
E|--------------2-2------------|
    Em         F#m  Bm
E|-----------------------------|
B|-----------------------------|
G|-----------------------------|
D|-------------0---------------|
A|-------0-2-4---2-0-2---------|
E|--0-0-3----------------------|

 hola gente, el punteo
 ke deje anteriormente
 esta pa` le mierda
00:00 / 00:00
Otros videos de esta canción
Repetir
Otros videos de esta canción
Composición de Demi carabajal
5 vistas
    • ½ Tono
    • Am
    • Bbm
    • Bm
    • Cm
    • C#m
    • Dm
    • Ebm
    • Em
    • Fm
    • F#m
    • Gm
    • G#m
  • Agregar a la lista

    0 comentarios

    Ver todos los comentarios

    ¿Lograste tocar?

    0 Tocaron 0 Aún no

    ¡Graba un video tocando Cielo e Infierno y envíanoslo!

    00:00 / 00:00
    OK