Cifra Club

Cielo o infierno

Peteco Carabajal

Cifrado: Principal (guitarra y guitarra eléctrica)
tono: Em

INTRO:
        Bm               F#m
E|------------------------------------|
B|------------------------------------|
G|------------------------------------|
D|--------0--0--4--4------------------|
A|--2--2-------------------0--0--4--4-|
E|-------------------2--2-------------|

    Em           F#m       Bm
E|-------------------------------------|
B|-------------------------------------|
G|-------------------------------------|
D|--------------0--2--0----------------|
A|---------2--4---------0--2-----------|
E|-0--0--3-----------------------------|
        Bm               F#m
E|-------------------------------------|
B|-------------------------------------|
G|-------------------------------------|
D|--------0--0--4--4-------------------|
A|--2--2-------------------0--0--4--4--|
E|-------------------2--2--------------|
         Em
E|------------------------------------|
B|------------------------------------|
G|------------------------------------| <---(continuacion)
D|------------------------------------|
A|---2--1--4--2-----------------------|
    6)0-----------------------------------
00:00 / 00:00
Otros videos de esta canción
Repetir
Otros videos de esta canción
Composición de Peteco
    • ½ Tono
    • Am
    • Bbm
    • Bm
    • Cm
    • C#m
    • Dm
    • Ebm
    • Em
    • Fm
    • F#m
    • Gm
    • G#m
  • Agregar a la lista

    0 comentarios

    Ver todos los comentarios

    ¿Lograste tocar?

    0 Tocaron 0 Aún no

    ¡Graba un video tocando Cielo o infierno y envíanoslo!

    00:00 / 00:00
    OK