Cifra Club

Perfume De Carnaval

Peteco Carabajal

Cifrado: Principal (guitarra y guitarra eléctrica)
tono: Em

INTRO:
                          G
E|---------------7/12-12--10-10-12--|
B|---7-8-------8-8/13-----12--------|
G|-9-----9---9----------------------|
D|---------9------------------------|
A|----------------------------------|
E|----------------------------------|

   Am       Em     B7     C
E|-8--8-10--7-7-8--5-5-7--3--|
B|-10-------8------7------5--|
G|---------------------------|
D|---------------------------|
A|---------------------------|
E|---------------------------|

            Am    F#7 B7
E|-3-2-0-2--3-2-0-2-3-5--6--7--|
B|-----------------------------|
G|-----------------------------|
D|-----------------------------|
A|-----------------------------|
E|-----------------------------|




Em            D7 G
Me voy solo con mi suerte
         C           D7 G  F
la llevaré en mi recuerdo
E7                 Am
bajo un añoso algarrobo
           E7           Am
cortaba el aire un pañuelo
  B7                C
bailando una vieja zamba
           G        B7 Em
yo le entregaba mi sueño.

   Em          D7    G
El sol quemaba en la tarde
         C     D7  G
siluetas que parecían
E7           Am
fantasmas amarillentos
          E7          Am
llenos de tierra y de vida
  B7               C
y yo rendido a sus ojos
          G       B7 Em
sintiendo que me quería.


Estribillo

Dm      E7           Am7
¡Ay! perfume de carnaval
   D                  G   F# F
ya nunca me he de olvidar
   E7               Am
su piel llevaba el aroma
           E7        Am
de flor y tierra mojada
   B7                 C
bellos recuerdos que siempre
            G         B7 Em
los guardo dentro del alma.


D PITE INTRODUCCION Y LOS E SMOS ENACE S.


¡Ay! tiempos, dónde han quedado
dónde he perdido mis sueños
quién sabe si ella se acuerda
de un viejo mes de febrero
y de aquel baile en el campo
y de mi amor verdadero.

No quise decirle nada
la amé en silencio esa tarde
y sobre sus trenzas negras
dejé mis coplas sentidas
me fui llevando sus ojos
un miércoles de cenizas.
00:00 / 00:00
Otros videos de esta canción
Repetir
Otros videos de esta canción
Composición de Peteco Carabajal
94 vistas
    • ½ Tono
    • Am
    • Bbm
    • Bm
    • Cm
    • C#m
    • Dm
    • Ebm
    • Em
    • Fm
    • F#m
    • Gm
    • G#m
  • Agregar a la lista

    0 comentarios

    Ver todos los comentarios

    ¿Lograste tocar?

    0 Tocaron 0 Aún no

    ¡Graba un video tocando Perfume De Carnaval y envíanoslo!

    00:00 / 00:00
    OK