Cifra Club

Do You Feel Like I Do

Peter Frampton

Tab de bajo: Principal
"Do you feel like I (we) do" - Live


Midi File: ???? (I have no idea where you can find one)

This is very riff driven rock, so I will break the song up into parts
just in case you are interested in a certain part.


Riff One: This part is mostly played by guitar, but it sounds
no different on a bass. (Note that the 10's and 12's are 10
and 12 fret's, not 1's, 0's and 2's.

-----------------------------------------------------------|
-10----12-10-----------------------------------------------|
----12-------12-10-8----10-8-------8----10-8---------------|
---------------------10------10-8----10------10-8-10-8-5-8-|

Riff Two: This is the main riff, when Frampton is singing.

----------------------------------------------------------|
-------------------22-22--22-22---------------------------|
--00--00-00-00-00-----------------------------------------|
----------------------------------------------------------|

Riff Three: This is the riff played when Frampton does all
the talkbox tricks with the guitar.

----------------------------------------------------------|
-0----3-------0-------0-----------------------------------|
----------3-------0-3-------------------------------------|
----------------------------------------------------------|

There you go...enjoy! (by the way, tuning is regular, i.e.
EADG)
Compositor no encontrado.
108 vistas

0 comentarios

Ver todos los comentarios
00:00 / 00:00
Otros videos de esta canción
Repetir Calidad Automático
Otros videos de esta canción
00:00 / 00:00
Automático
OK