Cifra Club

Ill Give You Money Intro

Peter Frampton

Cifrado: Principal (guitarra y guitarra eléctrica)
tono: C
Key:

b = bend
r = release bend
p = pick off
/ = slide
h = hammer on

Riff 1
(Do this riff a couple of times then comes the intro lead part.
e|----------------------------|
B|----------------------------|
G|-------------2----------2---|
D|-------------2----------2---|
A|-----0-3-0---0----------0---|
E|-0-3-------3------3-0-3-----|

During Riff 1, he plays these two notes.

e|-12---|
B|------|
G|----9-|
D|------|
A|------|
E|------|

Intro Lead

e|-12-----------------15b-15r-12-15-12--12---------------------------------|
B|---15-13-15-13----------------------15--15-13----------13-15-15b-r-p13---|
G|--------------14-12--------------------------14-12-14-----------------14-|
D|-------------------------------------------------------------------------|
A|-------------------------------------------------------------------------|
E|-------------------------------------------------------------------------|

e|--------15-12---------------------------------------------15-12--12------|
B|---13-15-----15-13-15b-15b-15-14-15-14---------------13-15-----15--------|
G|-14-----------------------------------14--------12-14--------------------|
D|----------------------------------------14-12/14-------------------------|
A|-------------------------------------------------------------------------|
E|-------------------------------------------------------------------------|

Riff 2

e|-----|
B|-----|
G|-0h2-| Repeat a bunch of times
D|-0h2-|
A|-0-0-|
E|-----|


Thats all so far.  Hope you have fun playing it.
Compositor no encontrado.
62 vistas
    • ½ Tono
    • A
    • Bb
    • B
    • C
    • Db
    • D
    • Eb
    • E
    • F
    • F#
    • G
    • Ab
  • Agregar a la lista

    0 comentarios

    Ver todos los comentarios

    ¿Lograste tocar?

    0 Tocaron 0 Aún no

    ¡Graba un video tocando Ill Give You Money Intro y envíanoslo!

    00:00 / 00:00
    Otros videos de esta canción
    Repetir Calidad Automático
    Otros videos de esta canción
    00:00 / 00:00
    Automático
    OK