Cifra Club

Dream Gone By

Peter Murphy

Cifrado: Principal (guitarra y guitarra eléctrica)
Selo Cifra Club: esta cifra foi revisada para atender aos critérios oficiais da nossa Equipe de Qualidade.
tono: Bm
[Riff Intro / Interlude (1)]
E|-----------------------------------------------------------|
B|-----------------------------------------------------------|
G|-----------------------------------------------------------|
D|----------------------0--0--2-0--2--2--2-2--0--------------|
A|--2--2-----0-2-0--2-2--------------------------2------0----|
E|--------2-------------------------------------------2---2--|


[Riff Intro / Interlude (2)]
E|-----------------------------------------------------------|
B|-----------------------------------------------------------|
G|-----------------------------------------------------------|
D|----------------------0--0--2-0--2--2--2-2--0--2--3-2-0----|
A|--2--2-----0-2-0--2-2--------------------------------------|
E|--------2--------------------------------------------------|


[Verse]
E|-------3--0---|
B|-------0--1---|
G|-----0-0--2---|
D|---3---0--3---|
A|-------2--0---|
E|-------3------|


[Verse]
G               Fmaj7
Let go all the tears of your life
G               Fmaj7
The one you left behind
G               Fmaj7
Let the pain of the dream go by
G               Fmaj7
It's over
G               Fmaj7
The love is calling
G               Fmaj7
I'm searching
G               Fmaj7
You have gone to be free

[Chorus]
Bm          G
The love is calling
G
I'm searching
Bm                  G    F#
You have gone to be free
D                  G
When the light had gone
G
And the night was over
Bm                         G
Yet the feeling will still exist
F#
For you and me

[Riff Interlude]

[Verse]
G               Fmaj7
Let go all the tears of your life
G               Fmaj7
The one you left behind
G               Fmaj7
Let the pain of the dream go by it's over
G               Fmaj7
And the feeling still exists
G               Fmaj7
For you and me
G               Fmaj7
You have gone to be free

Bm                           G
Let go all the tears of your life
G
The one you left behind
Bm                   G               F#
Let the pain of the dream go by it's over
D                           G
Oh, and as you fly past the sign
G
That points to our way
Bm                   G
Send your children a whispered song
F#
Then allow yourself away



[Riff Interlude accompanies lyrics below] 

One two I am you
You are but a show
Three four there's no mre
Your red mouth is aglow
Five six no more tricks
Now I'm feeling clean
The secret yeah it moved so fast
Had to dive into mid stream
Otros videos de esta canción
    13 exhibiciones
      • ½ Tono
      • Am
      • Bbm
      • Bm
      • Cm
      • C#m
      • Dm
      • Ebm
      • Em
      • Fm
      • F#m
      • Gm
      • G#m
    • Agregar a la lista

    Afinação da cifra

    Afinador online

      Ops (: Contenido disponible solo en portugués.
      OK