Cifra Club

Where You Gonna Run

Peter Tosh

Tab de bajo: Principal
Intro: 
G|-------------------------| 
D|-------------------------|
A|--3/5-3--0--------5------|
E|------------3--1---------| 
Vverse:
G|--------------------------------------------------------------| 
D|----3--------------------------------3------------------------|
A|535---5--------------------313---535---5-------111---313---13-| (4x)
E|--------1--1---333-----535---------------1--1-------------3---|

Refrain: 
G|----------------------------------------------------------| 
D|----------------------------------------------------------|
A|--11--------1-1---33--------3-3---3/5-30-5---3/5-30-3--1--| (2x)
E|----3-3-1-1---------5-5-3-3-------------------------------|
Composición de Donald Kinsey / Ralph Kinsey
Colaboración y revisión:
  • Everton Damascena
5 vistas

0 comentarios

Ver todos los comentarios

¿Lograste tocar?

0 Tocaron 0 Aún no

¡Graba un video tocando Where You Gonna Run y envíanoslo!

00:00 / 00:00
Otros videos de esta canción
Repetir Calidad Automático
Otros videos de esta canción
00:00 / 00:00
Automático
OK