Cifra Club

Pode Vir Comigo

Phill Veras

Cifrado: Principal (guitarra y guitarra eléctrica)
Selo Cifra Club: esta cifra foi revisada para atender aos critérios oficiais da nossa Equipe de Qualidade.
tono: G
Intro:

          Am        Bm        Em7      Bm
E|--------------------------------7-----------------------------------------
B|----5---------7---------8-------7-------7---------------7--8--7-----------
G|----5---------7---------7---------------7-----------7-------------7--9--7-
D|----5---------9---------9---------------7--------7------------------------
A|----x---------x---------7---------------x---------------------------------
E|----5---------7-------------------------7---------------------------------

          Am        Bm        Em7       Bm
E|--------------------------------7-------10--------------------10--8--7---------
B|----5---------7---------8-------7-------7-----------------7--------------10--8-
G|----5---------7---------7---------------7-------------7------------------------
D|----5---------9---------9---------------7---------7----------------------------
A|----x---------x---------7---------------x--------------------------------------
E|----5---------7-------------------------7--------------------------------------

          Am        Bm        Em7       Bm
E|--------------------------------7-----------------------------------------
B|----5---------7---------8-------7-------7---------------7--8--7-----------
G|----5---------7---------7---------------7-----------7-------------7--9--7-
D|----5---------9---------9---------------7--------7------------------------
A|----x---------x---------7---------------x---------------------------------
E|----5---------7-------------------------7---------------------------------

          Am
E|-------------------------------------------------
B|----5--------------------------------------------
G|----5------------------5--------------5---7--8--
D|----5------------------5--------------5----------
A|----x-------------7-------7-------7--------------
E|----5---------5----------------5-----------------

Ponte:

            Am7(9)                           D7(13)                           Am7(9)
E|---------------------x------------------------------5/7---5---3-------0-----
B|--------------0------x------0-------------0---------0-----0---0-------0-----
G|------------5---5----x----5---5---------5---5-------0-----0---0-------5-----
D|----------5-------5--x--5-------5-----4-------4-----------------------x-----
A|---------------------x-------------5----------------------------------x-----
E|-------5-------------x------------------------------------------------5-----

                          Am6/D
E|--------3--0------------------5------5------5---------
B|--------0--0----0-----------0---0------0------0-------
G|----5---------5---5------5--------5------5------5-----
D|------------------------------------------------------
A|-----------------------5------------------------------
E|------------------------------------------------------

Pré-Refrão:

           Em7(9)
E|------------------------------------------------------------
B|----------------7--------------7-------8--8--------7--7-----
G|-------------7----7---------7---7------7--7--------7--7-----
D|----------5----------5----5-------5-------------------------
A|-----5/7---------------7-----------------------7------------
E|------------------------------------------------------------

Refrão:

        Am7        D7(9) Em7(9)   Bm7   Am7      D7(9)  Em7(9)  Bm7
E|------------x--------------x--------------x--------------x------------
B|-------5----x----5-----7---x---3-----5----x----5-----7---x---3--------
G|-------5----x----5-----7---x---2-----5----x----5-----7---x---2--------
D|-------5----x----4-----5---x---4-----5----x----4-----5---x---4--------
A|------------x-----5--7-----x----2---------x-----5--7-----x----2-------
E|-----5------x--------------x-------5------x--------------x------------

(Intro)

(Ponte)

Am7(9)        D7(13)
Pare de chorar, te faço entender
Am7(9)        D7(13)
Que é melhor a dois se formos nós
Bm7                    Am  Bm   Em7
Em qualquer embalo, em qualquer mar
                       Am  Bm   Em7
Em qualquer embalo, a qualquer preço
Por nós dois

(Ponte)

       Am        Bm        Em7              Bm
E|--------------------------------7-----------------------------------------
B|----5---------7---------8-------7-------7---------------7--8--7-----------
G|----5---------7---------7---------------7-----------7-------------7--9--7-
D|----5---------9---------9---------------7--------7------------------------
A|----x---------x---------7---------------x---------------------------------
E|----5---------7-------------------------7---------------------------------

Pare de pensar no que pode acontecer
Am7(9)        D7(13)
Pesadelos ou pra fora de nós
Bm7                   Am Bm Em7
E qualquer outro medo de sonhar
                      Am Bm Em7
Pra fora do enredo ou nosso lar
Não entre nós

(Ponte)

(Pré-Refrão)

Refrão

Am7   D7(9)  Em7(9)  Bm7
Ah, não que eu seja sem medo
Am7   D7(9)  Em7(9) Bm7
Mas mesmo assim não temo
Am7   D7(9)  Em7(9)  Bm7
Pode vir comigo,
Am7   D7(9)  Em7(9)  Bm7
Pode vir comigo.
Am7   D7(9)  Em7(9)  Bm7
Não que eu seja sem medo
Am7   D7(9)  Em7(9)  Bm7
Mas mesmo assim não temo
Am7   D7(9)  Em7(9)  Bm7
Pode vir comigo.
Am7   D7(9)  Em7(9)  Bm7
Pode vir comigo.

Introdução

Am7(9)         D7(13)
Pare de falar, deixe tudo ao seu tempo
Am7(9)         D7(13)
E ouça essa canção que fala de nós
Bm7                Am Bm Em
Não temos um erro, um sequer
                         Am Bm    Em
Que nós somos perfeitos, desde os pés ao coração

Ponte

Pré-Refrão

Refrão

Am7     D7(9)       Em7(9)
Ah, não que eu seja sem medo
Am7    D7(9)    Em7(9)
Mas mesmo assim não temo
Am7 D7(9) Em7(9)
Pode vir comigo,
Am7 D7(9) Em7(9)
Pode vir comigo.
Otros videos de esta canción
    128.918 exhibiciones
      • ½ Tono
      • A
      • Bb
      • B
      • C
      • Db
      • D
      • Eb
      • E
      • F
      • F#
      • G
      • Ab
    • Agregar a la lista

    Afinación de cifrado

    Afinador online

      OK