Cifra Club

Sob a Lua Certa

Phill Veras

Cifrado: Principal (guitarra y guitarra eléctrica)
Selo Cifra Club: esta cifra foi revisada para atender aos critérios oficiais da nossa Equipe de Qualidade.
tono: G
[Primeira Parte]

[Tab - Primeira e Segunda Parte]

   C7M   D7/C    Bm7            Am7      Bm7
E|-----------------------7-----------5------------7----|
B|---8-8---7--7---7--7---7--7---5-5--5-5----7-7---7-7--|
G|---9-9---7--7---7--7---7--7---5-5--5-5----7-7---7-7--|
D|---9-9---7--7---7--7------7---5-5----5----7-7-----7--|
A|-----------------------------------------------------|
E|-8-----8------7------7------5-----5------7----7------|

C7M     D7/G     Bm7                    Am7               Bm7
   Meu corpo de carne sedenta só na vontade de poder viver
 D7/G       Bm7                     Am7                     Bm7
Vida num abraço apertado; qualquer momento pra chamar de meu

[Refrão]

[Tab - Refrão e Terceira Parte]

   Am7    Bm7          D4/E     D/A
E|----5-----------7--------------------------|
B|-5--5-5---7-7---7-7-----8--7--7-----7-5----|
G|-5--5-5---7-7---7-7-----7--7--7----7---7-5-|
D|-5----5---7-7-----7-----------7--7---------|
A|------------------------7--7--0------------|
E|-5------7-----7-------0--------------------|

Am7      Bm7             D7/E         D7A
 Alguém mandou me chamar e eu vim correndo
Am7       Bm7          D7/E       D/A
 Rolê distante de lá, vim sobrevivendo

[Segunda Parte]

C7M         Bm7                       Am7            Bm7
 Eita, você é de verdade, alguém que reza sob a Lua certa
 D7/C       Bm7               Am7                          Bm7
Nosso papo pela metade, pode deixar que eu deixo a porta aberta

[Refrão]

Am7      Bm7             D7/E         D7A
 Alguém mandou me chamar e eu vim correndo
Am7       Bm7          D7/E       D/A
 Rolê distante de lá, vim sobrevivendo
Am7      Bm7             D7/E         D7A
 Alguém mandou me chamar e eu vim correndo
Am7       Bm7          D7/E       D/A
 Rolê distante de lá, vim sobrevivendo

[Terceira Parte]

                    Am7           Bm7
 E furtando bom da vida nessa história
          D7/E                  D/A
Pra debochar de algum filho da vida
                   Am7           Bm7                 D7/E     D/A
Mas esconde no jardim, esconde o ouro no jardim sem mim, sem mim
                   Am7           Bm7
Furtando o bom da vida nessa história

Pra debochar de algum filho da vida
                   Am7           Bm7                 D7/E     D/A
Mas esconde no jardim, esconde o ouro no jardim sem mim, sem mim

[Quarta Parte]

[Tab - Quarta Parte]

Parte 1 de 2
   C7M    Bm7              Am7       G7M         F
E|-------------------7-----------5---------------1-1----1-1-|
B|---8-8-----7--7----7--7---5-5--5-5--3-3---3-3--1-1----1-1-|
G|---9-9-----7--7----7--7---5-5--5-5--4-4---3-3--2-2----2-2-|
D|---9-9-----7--7-------7---5-5----5--4-4---4-4--3-3----3-3-|
A|-----------------------------------------------3-3----3-3-|
E|-8------7-------7--------5----5-5---3-3--3-----1-1--1-----|

Parte 2 de 2
   Em      C7M        Bm7
E|-0---------0-----------------------|
B|-0----0----0----0------7----7-5----|
G|-0---0-0---0---0-0-----7---7---7-5-|
D|-2--0------2--0--------7--7--------|
A|-2---------3-----------------------|
E|-0-------------------7-------------|

C7M         Bm7                       Am7               G7M F
 Eita, você é de verdade, alguém que reza sob a Lua certa
            Em                   C7M                           Bm7
Nosso papo pela metade, pode deixar que eu deixo a porta aberta

[Refrão]

Am7      Bm7             D7/E         D/A
 Alguém mandou me chamar e eu vim correndo
Am7       Bm7          D7/E       D/A
 Rolê distante de lá, vim sobrevivendo
Am7      Bm7             D7/E         D/A
 Alguém mandou me chamar e eu vim correndo
Am7       Bm7          D7/E       D/A
 Rolê distante de lá, vim sobrevivendo

[Final] Am7  Bm7  D7/E  D/A 
        Am7  Bm7  D7/E  D/A
        Am7  Bm7  D7/E  D/A 
        Am7  Bm7  D7/E  D/A
Otros videos de esta canción
    133 exhibiciones
      • ½ Tono
      • A
      • Bb
      • B
      • C
      • Db
      • D
      • Eb
      • E
      • F
      • F#
      • G
      • Ab
    • Agregar a la lista

    Afinación de cifrado

    Afinador online

      OK