Cifra Club

Vício

Phill Veras

Cifrado: Principal (guitarra y guitarra eléctrica)
tono: F
[Intro] Bb  Bb7M  Bb  Bb7M  
        Gm7  Gm6  Gm7  Gm6
        Am7  Am5+  Am7  Am5+
        F11/Bb  Bb6  F11/Bb  Bb6


   Bb    Bb7M  Bb    Bb7M    Gm7   Gm6   Gm7   Gm6
E|-----------------------------------------------------|
B|-3---3--3--3--3--3--3--3---3---3--3--3--3--3--3--3---|
G|-3---3--2--2--3--3--2--2---3---3--3--3--3--3--3--3---|
D|-3---3--3--3--3--3--3--3---3---3--2--2--3--3--2--2---|
A|-1--1--1--1--1--1--1--1------------------------------|
E|---------------------------3--3--3--3--3--3--3--3----|

   Am7   Am5+ Am7  Am5+  F11/Bb Bb6  F11/Bb Bb6
E|-----------------------------------------------------|
B|-5---5--5--5--5--5--5--5---6---6--6--6--6--6--6--6---|
G|-5---5--5--5--5--5--5--5---5---5--7--7--5--5--7--7---|
D|-5---5--3--3--5--5--3--3---7---7--5--5--7--7--5--5---|
A|-----------------------------------------------------|
E|-5--5--5--5--5--5--5--5----6--6--6--6--6--6--6--6----|

Bb  Bb7M                  Gm7  Gm6
Dava pra sentir por todo o corpo
        Am7  Am5+                 F11/Bb  Bb6
Era o movimento que sobrava pra fazer
Bb  Bb7M                Gm7  Gm6
E eu te preparei uma surpresa
            Am7  Am5+                      F11/Bb  Bb6
Pode me algemar, porque eu não quero me perder
            Bb  Bb7M
Pode me prender, me obrigue a ficar
          Gm7  Gm6
Pode me dopar
              Am7  Am5+
Põe algo pra gente ouvir
             F11/Bb    Bb6
Pra me distrair, não quero lembrar
          Bb  Bb7M
Me obrigue a beber pra eu desmaiar
             Gm7   Gm6
Pode me trancar
                Am7   Am5+
Pede alguém pra te ajudar
             F11/Bb  Bb6
Não quero te machucar
           Bb  Bb7M
Não devo te machucar
             Gm7   Gm6
Não culpe a si mesma
Peça por nos dois
         Am7  Am5+
Fala do depois
             F11/Bb
Deixa a música tocar

 Bb  Bb7M                 Gm7  Gm6
Dava pra te ver do lado oposto
             Am7  Am5+             F11/Bb  Bb6
E eu não duvidava que gostava de você
Bb  Bb7M                  Gm7  Gm6
Não quero sofrer nessa promessa
              Am7  Am5+                   F11/Bb  Bb6
Faça o que quiser, mas não permita-me morrer
           Bb  Bb7M
Pode me prender, me obrigue a ficar 
             Gm7  Gm6
Pode me dopar
                Am7   Am5+
Põe algo pra a gente ouvir
           F11/Bb  Bb6
Pra me seduzir, não quero deitar
               Bb  Bb7M
Me obrigue a viver pra eu planejar
          Gm7  Gm6
Pode me calar
             Am7  Am5+
Não deixe ninguém entrar
             F11/Bb  Bb6
Não quero me machucar
            Bb  Bb7M
Não devo me machucar
               Gm7  Gm6
Não vai dar na mesma
Faço por nós dois
            Am7  Am5+
Penso no depois
            F11/Bb
Deixo a música tocar, into your heart
            Bb  Bb7M
Deixo a música tocar, into your heart
            Gm7  Gm6
Deixo a música tocar, into your heart
              Am7  Am5+     
E deixo a música tocar, into your heart
            F11/Bb
Deixo a música, into your heart
00:00 / 00:00
Otros videos de esta canción
Repetir
Otros videos de esta canción
Composición de Phill Veras
1.537 exhibiciones
  • Simplificar cifrado
    • ½ Tono
    • A
    • Bb
    • B
    • C
    • Db
    • D
    • Eb
    • E
    • F
    • F#
    • G
    • Ab
  • Agregar a la lista
    00:00 / 00:00
    OK